  0
SECTION
  2
HEADER
  9
$ACADVER
  1
AC1009
  9
$DWGCODEPAGE
  3
ANSI_932
  9
$INSBASE
 10
0.0
 20
0.0
 30
0.0
  9
$EXTMIN
 10
-100
 20
-100
 30
-100
  9
$EXTMAX
 10
100
 20
100
 30
100
  9
$LIMMIN
 10
0.0
 20
0.0
  9
$LIMMAX
 10
420.0
 20
297.0
  9
$ORTHOMODE
 70
0
  9
$REGENMODE
 70
1
  9
$DRAGMODE
 70
2
  9
$FILLMODE
 70
1
  9
$QTEXTMODE
 70
0
  9
$MIRRTEXT
 70
1
  9
$OSMODE
 70
20583
  9
$LTSCALE
 40
1.0
  9
$ATTMODE
 70
1
  9
$TEXTSIZE
 40
2.5
  9
$TRACEWID
 40
1.0
  9
$TEXTSTYLE
  7
OpenSans
  9
$CLAYER
  8
0
  9
$CELTYPE
  6
ByLayer
  9
$CECOLOR
 62
256
  9
$DIMSCALE
 40
1.0
  9
$DIMASZ
 40
0.175
  9
$DIMEXO
 40
0.125
  9
$DIMDLI
 40
3.75
  9
$DIMRND
 40
0.0
  9
$DIMDLE
 40
0.0
  9
$DIMEXE
 40
0.375
  9
$DIMTP
 40
0.0
  9
$DIMTM
 40
0.0
  9
$DIMTXT
 40
0.25
  9
$DIMCEN
 40
2.5
  9
$DIMTSZ
 40
0.0
  9
$DIMTOL
 70
0
  9
$DIMLIM
 70
0
  9
$DIMTIH
 70
0
  9
$DIMTOH
 70
0
  9
$DIMSE1
 70
0
  9
$DIMSE2
 70
0
  9
$DIMTAD
 70
1
  9
$DIMZIN
 70
8
  9
$DIMBLK
  1
ARCHTICK
  9
$DIMASO
 70
1
  9
$DIMSHO
 70
1
  9
$DIMPOST
  1

  9
$DIMAPOST
  1

  9
$DIMALT
 70
0
  9
$DIMALTD
 70
3
  9
$DIMALTF
 40
0.03937007874
  9
$DIMLFAC
 40
100.0
  9
$DIMTOFL
 70
1
  9
$DIMTVP
 40
0.0
  9
$DIMTIX
 70
0
  9
$DIMSOXD
 70
0
  9
$DIMSAH
 70
0
  9
$DIMBLK1
  1

  9
$DIMBLK2
  1

  9
$DIMSTYLE
  2
BASIC
  9
$DIMCLRD
 70
0
  9
$DIMCLRE
 70
0
  9
$DIMCLRT
 70
0
  9
$DIMTFAC
 40
1.0
  9
$DIMGAP
 40
0.1
  9
$COORDS
 70
1
  9
$ATTDIA
 70
0
  9
$ATTREQ
 70
1
  9
$HANDLING
 70
1
  9
$LUNITS
 70
2
  9
$LUPREC
 70
4
  9
$SKETCHINC
 40
1.0
  9
$FILLETRAD
 40
10.0
  9
$AUNITS
 70
0
  9
$AUPREC
 70
2
  9
$MENU
  1
.
  9
$ELEVATION
 40
0.0
  9
$PELEVATION
 40
0.0
  9
$THICKNESS
 40
0.0
  9
$LIMCHECK
 70
0
  9
$CHAMFERA
 40
0.0
  9
$CHAMFERB
 40
0.0
  9
$SKPOLY
 70
0
  9
$TDCREATE
 40
2461015.6405555555
  9
$TDUPDATE
 40
2461015.6405671295
  9
$TDINDWG
 40
0.0
  9
$TDUSRTIMER
 40
0.0
  9
$USRTIMER
 70
1
  9
$ANGBASE
 50
0.0
  9
$ANGDIR
 70
0
  9
$PDMODE
 70
0
  9
$PDSIZE
 40
0.0
  9
$PLINEWID
 40
0.0
  9
$SPLFRAME
 70
0
  9
$SPLINETYPE
 70
6
  9
$SPLINESEGS
 70
8
  9
$HANDSEED
  5
9FB
  9
$SURFTAB1
 70
6
  9
$SURFTAB2
 70
6
  9
$SURFTYPE
 70
6
  9
$SURFU
 70
6
  9
$SURFV
 70
6
  9
$UCSNAME
  2

  9
$UCSORG
 10
0.0
 20
0.0
 30
0.0
  9
$UCSXDIR
 10
1.0
 20
0.0
 30
0.0
  9
$UCSYDIR
 10
0.0
 20
1.0
 30
0.0
  9
$PUCSNAME
  2

  9
$PUCSORG
 10
0.0
 20
0.0
 30
0.0
  9
$PUCSXDIR
 10
1.0
 20
0.0
 30
0.0
  9
$PUCSYDIR
 10
0.0
 20
1.0
 30
0.0
  9
$USERI1
 70
0
  9
$USERI2
 70
0
  9
$USERI3
 70
0
  9
$USERI4
 70
0
  9
$USERI5
 70
0
  9
$USERR1
 40
0.0
  9
$USERR2
 40
0.0
  9
$USERR3
 40
0.0
  9
$USERR4
 40
0.0
  9
$USERR5
 40
0.0
  9
$WORLDVIEW
 70
1
  9
$SHADEDGE
 70
3
  9
$SHADEDIF
 70
70
  9
$TILEMODE
 70
1
  9
$MAXACTVP
 70
64
  9
$PLIMCHECK
 70
0
  9
$PEXTMIN
 10
1e+20
 20
1e+20
 30
1e+20
  9
$PEXTMAX
 10
-1e+20
 20
-1e+20
 30
-1e+20
  9
$PLIMMIN
 10
0.0
 20
0.0
  9
$PLIMMAX
 10
420.0
 20
297.0
  9
$UNITMODE
 70
0
  9
$VISRETAIN
 70
1
  9
$PLINEGEN
 70
0
  9
$PSLTSCALE
 70
1
  0
ENDSEC
  0
SECTION
  2
TABLES
  0
TABLE
  2
VPORT
 70
1
  0
VPORT
  5
23
  2
*Active
 70
0
 10
0.0
 20
0.0
 11
1.0
 21
1.0
 12
70.0
 22
50.0
 13
0.0
 23
0.0
 14
0.5
 24
0.5
 15
0.5
 25
0.5
 16
0.0
 26
0.0
 36
1.0
 17
0.0
 27
0.0
 37
0.0
 40
1.0
 41
1.34
 42
50.0
 43
0.0
 44
0.0
 50
0.0
 51
0.0
 71
0
 72
1000
 73
1
 74
3
 75
0
 76
0
 77
0
 78
0
  0
ENDTAB
  0
TABLE
  2
LTYPE
 70
21
  0
LTYPE
  5
24
  2
ByBlock
 70
0
  3

 72
65
 73
0
 40
0.0
  0
LTYPE
  5
25
  2
ByLayer
 70
0
  3

 72
65
 73
0
 40
0.0
  0
LTYPE
  5
26
  2
Continuous
 70
0
  3

 72
65
 73
0
 40
0.0
  0
LTYPE
  5
2D
  2
CENTER
 70
0
  3
Center ____ _ ____ _ ____ _ ____ _ ____ _ ____
 72
65
 73
4
 40
2.0
 49
1.25
 49
-0.25
 49
0.25
 49
-0.25
  0
LTYPE
  5
2E
  2
CENTERX2
 70
0
  3
Center (2x) ________  __  ________  __  ________
 72
65
 73
4
 40
3.5
 49
2.5
 49
-0.25
 49
0.5
 49
-0.25
  0
LTYPE
  5
2F
  2
CENTER2
 70
0
  3
Center (.5x) ____ _ ____ _ ____ _ ____ _ ____
 72
65
 73
4
 40
1.0
 49
0.625
 49
-0.125
 49
0.125
 49
-0.125
  0
LTYPE
  5
30
  2
DASHED
 70
0
  3
Dashed __ __ __ __ __ __ __ __ __ __ __ __ __ _
 72
65
 73
2
 40
0.6
 49
0.5
 49
-0.1
  0
LTYPE
  5
31
  2
DASHEDX2
 70
0
  3
Dashed (2x) ____  ____  ____  ____  ____  ____
 72
65
 73
2
 40
1.2
 49
1.0
 49
-0.2
  0
LTYPE
  5
32
  2
DASHED2
 70
0
  3
Dashed (.5x) _ _ _ _ _ _ _ _ _ _ _ _ _ _
 72
65
 73
2
 40
0.3
 49
0.25
 49
-0.05
  0
LTYPE
  5
33
  2
PHANTOM
 70
0
  3
Phantom ______  __  __  ______  __  __  ______
 72
65
 73
6
 40
2.5
 49
1.25
 49
-0.25
 49
0.25
 49
-0.25
 49
0.25
 49
-0.25
  0
LTYPE
  5
34
  2
PHANTOMX2
 70
0
  3
Phantom (2x)____________    ____    ____    ____________
 72
65
 73
6
 40
4.25
 49
2.5
 49
-0.25
 49
0.5
 49
-0.25
 49
0.5
 49
-0.25
  0
LTYPE
  5
35
  2
PHANTOM2
 70
0
  3
Phantom (.5x) ___ _ _ ___ _ _ ___ _ _ ___ _ _ ___
 72
65
 73
6
 40
1.25
 49
0.625
 49
-0.125
 49
0.125
 49
-0.125
 49
0.125
 49
-0.125
  0
LTYPE
  5
36
  2
DASHDOT
 70
0
  3
Dash dot __ . __ . __ . __ . __ . __ . __ . __
 72
65
 73
4
 40
1.4
 49
1.0
 49
-0.2
 49
0.0
 49
-0.2
  0
LTYPE
  5
37
  2
DASHDOTX2
 70
0
  3
Dash dot (2x) ____  .  ____  .  ____  .  ____
 72
65
 73
4
 40
2.4
 49
2.0
 49
-0.2
 49
0.0
 49
-0.2
  0
LTYPE
  5
38
  2
DASHDOT2
 70
0
  3
Dash dot (.5x) _ . _ . _ . _ . _ . _ . _ . _
 72
65
 73
4
 40
0.7
 49
0.5
 49
-0.1
 49
0.0
 49
-0.1
  0
LTYPE
  5
39
  2
DOT
 70
0
  3
Dot .  .  .  .  .  .  .  .  .  .  .  .  .  .  .  .
 72
65
 73
2
 40
0.2
 49
0.0
 49
-0.2
  0
LTYPE
  5
3A
  2
DOTX2
 70
0
  3
Dot (2x) .    .    .    .    .    .    .    . 
 72
65
 73
2
 40
0.4
 49
0.0
 49
-0.4
  0
LTYPE
  5
3B
  2
DOT2
 70
0
  3
Dot (.5) . . . . . . . . . . . . . . . . . . . 
 72
65
 73
2
 40
0.1
 49
0.0
 49
-0.1
  0
LTYPE
  5
3C
  2
DIVIDE
 70
0
  3
Divide __ . . __ . . __ . . __ . . __ . . __
 72
65
 73
6
 40
1.6
 49
1.0
 49
-0.2
 49
0.0
 49
-0.2
 49
0.0
 49
-0.2
  0
LTYPE
  5
3D
  2
DIVIDEX2
 70
0
  3
Divide (2x) ____  . .  ____  . .  ____  . .  ____
 72
65
 73
6
 40
2.6
 49
2.0
 49
-0.2
 49
0.0
 49
-0.2
 49
0.0
 49
-0.2
  0
LTYPE
  5
3E
  2
DIVIDE2
 70
0
  3
Divide(.5x) _ . _ . _ . _ . _ . _ . _ . _
 72
65
 73
6
 40
0.8
 49
0.5
 49
-0.1
 49
0.0
 49
-0.1
 49
0.0
 49
-0.1
  0
ENDTAB
  0
TABLE
  2
LAYER
 70
28
  0
LAYER
  5
27
  2
0
 70
0
 62
7
  6
Continuous
  0
LAYER
  5
28
  2
Defpoints
 70
0
 62
7
  6
Continuous
  0
LAYER
  5
90
  2
P_Aisle_Sidewalk
 70
0
 62
7
  6
CONTINUOUS
  0
LAYER
  5
91
  2
P_TrafficSign
 70
0
 62
5
  6
CONTINUOUS
  0
LAYER
  5
92
  2
P_RailwayArea
 70
0
 62
18
  6
CONTINUOUS
  0
LAYER
  5
93
  2
P_Building_Facility
 70
0
 62
7
  6
CONTINUOUS
  0
LAYER
  5
94
  2
P_Building_Residential
 70
0
 62
7
  6
CONTINUOUS
  0
LAYER
  5
95
  2
P_Building_Misc
 70
0
 62
7
  6
CONTINUOUS
  0
LAYER
  5
96
  2
P_Site
 70
0
 62
18
  6
CONTINUOUS
  0
LAYER
  5
97
  2
P_Elevator
 70
0
 62
7
  6
CONTINUOUS
  0
LAYER
  5
98
  2
P_Water
 70
0
 62
151
  6
CONTINUOUS
  0
LAYER
  5
99
  2
L_Road_Prefectural
 70
0
 62
253
  6
CONTINUOUS
  0
LAYER
  5
9A
  2
L_Road_General
 70
0
 62
253
  6
CONTINUOUS
  0
LAYER
  5
9B
  2
L_Road_Misc
 70
0
 62
253
  6
CONTINUOUS
  0
LAYER
  5
9C
  2
L_Aisle_Misc
 70
0
 62
253
  6
CONTINUOUS
  0
LAYER
  5
9D
  2
L_RoadStructure
 70
0
 62
253
  6
CONTINUOUS
  0
LAYER
  5
9E
  2
L_MapSymbol
 70
0
 62
155
  6
DASHEDX2
  0
LAYER
  5
9F
  2
L_GardenRoad
 70
0
 62
253
  6
CONTINUOUS
  0
LAYER
  5
A0
  2
L_RailwayTrack
 70
0
 62
253
  6
CONTINUOUS
  0
LAYER
  5
A1
  2
L_Elevator
 70
0
 62
254
  6
CONTINUOUS
  0
LAYER
  5
A2
  2
L_Admin_Town
 70
0
 62
230
  6
DASHDOTX2
  0
LAYER
  5
A3
  2
L_Admin_TownBlock
 70
0
 62
230
  6
DASHEDX2
  0
LAYER
  5
A4
  2
L_Geometry
 70
0
 62
254
  6
CONTINUOUS
  0
LAYER
  5
A5
  2
TXT_Road_Prefectural
 70
0
 62
7
  6
Continuous
  0
LAYER
  5
A6
  2
TXT_Site
 70
0
 62
7
  6
Continuous
  0
LAYER
  5
A7
  2
TXT_Building_Name
 70
0
 62
7
  6
Continuous
  0
LAYER
  5
A8
  2
TXT_Building_Number
 70
0
 62
230
  6
Continuous
  0
LAYER
  5
A9
  2
TXT_Building_Floor
 70
0
 62
7
  6
Continuous
  0
ENDTAB
  0
TABLE
  2
STYLE
 70
28
  0
STYLE
  5
29
  2
Standard
 70
0
 40
0.0
 41
1.0
 50
0.0
 71
0
 42
2.5
  3
txt
  4

  0
STYLE
  5
3F
  2
OpenSans-Light
 70
0
 40
0.0
 41
1.0
 50
0.0
 71
0
 42
2.5
  3
OpenSans-Light.ttf
  4

  0
STYLE
  5
40
  2
OpenSans-Light-Italic
 70
0
 40
0.0
 41
1.0
 50
0.0
 71
0
 42
2.5
  3
OpenSans-LightItalic.ttf
  4

  0
STYLE
  5
41
  2
OpenSans
 70
0
 40
0.0
 41
1.0
 50
0.0
 71
0
 42
2.5
  3
OpenSans-Regular.ttf
  4

  0
STYLE
  5
42
  2
OpenSans-Italic
 70
0
 40
0.0
 41
1.0
 50
0.0
 71
0
 42
2.5
  3
OpenSans-Italic.ttf
  4

  0
STYLE
  5
43
  2
OpenSans-SemiBold
 70
0
 40
0.0
 41
1.0
 50
0.0
 71
0
 42
2.5
  3
OpenSans-SemiBold.ttf
  4

  0
STYLE
  5
44
  2
OpenSans-SemiBoldItalic
 70
0
 40
0.0
 41
1.0
 50
0.0
 71
0
 42
2.5
  3
OpenSans-SemiBoldItalic.ttf
  4

  0
STYLE
  5
45
  2
OpenSans-Bold
 70
0
 40
0.0
 41
1.0
 50
0.0
 71
0
 42
2.5
  3
OpenSans-Bold.ttf
  4

  0
STYLE
  5
46
  2
OpenSans-BoldItalic
 70
0
 40
0.0
 41
1.0
 50
0.0
 71
0
 42
2.5
  3
OpenSans-BoldItalic.ttf
  4

  0
STYLE
  5
47
  2
OpenSans-ExtraBold
 70
0
 40
0.0
 41
1.0
 50
0.0
 71
0
 42
2.5
  3
OpenSans-ExtraBold.ttf
  4

  0
STYLE
  5
48
  2
OpenSans-ExtraBoldItalic
 70
0
 40
0.0
 41
1.0
 50
0.0
 71
0
 42
2.5
  3
OpenSans-ExtraBoldItalic.ttf
  4

  0
STYLE
  5
49
  2
OpenSansCondensed-Bold
 70
0
 40
0.0
 41
1.0
 50
0.0
 71
0
 42
2.5
  3
OpenSansCondensed-Bold.ttf
  4

  0
STYLE
  5
4A
  2
OpenSansCondensed-Light
 70
0
 40
0.0
 41
1.0
 50
0.0
 71
0
 42
2.5
  3
OpenSansCondensed-Light.ttf
  4

  0
STYLE
  5
4B
  2
OpenSansCondensed-Italic
 70
0
 40
0.0
 41
1.0
 50
0.0
 71
0
 42
2.5
  3
OpenSansCondensed-LightItalic.ttf
  4

  0
STYLE
  5
4C
  2
LiberationSans
 70
0
 40
0.0
 41
1.0
 50
0.0
 71
0
 42
2.5
  3
LiberationSans-Regular.ttf
  4

  0
STYLE
  5
4D
  2
LiberationSans-Bold
 70
0
 40
0.0
 41
1.0
 50
0.0
 71
0
 42
2.5
  3
LiberationSans-Bold.ttf
  4

  0
STYLE
  5
4E
  2
LiberationSans-BoldItalic
 70
0
 40
0.0
 41
1.0
 50
0.0
 71
0
 42
2.5
  3
LiberationSans-BoldItalic.ttf
  4

  0
STYLE
  5
4F
  2
LiberationSans-Italic
 70
0
 40
0.0
 41
1.0
 50
0.0
 71
0
 42
2.5
  3
LiberationSans-Italic.ttf
  4

  0
STYLE
  5
50
  2
LiberationSerif
 70
0
 40
0.0
 41
1.0
 50
0.0
 71
0
 42
2.5
  3
LiberationSerif-Regular.ttf
  4

  0
STYLE
  5
51
  2
LiberationSerif-Bold
 70
0
 40
0.0
 41
1.0
 50
0.0
 71
0
 42
2.5
  3
LiberationSerif-Bold.ttf
  4

  0
STYLE
  5
52
  2
LiberationSerif-BoldItalic
 70
0
 40
0.0
 41
1.0
 50
0.0
 71
0
 42
2.5
  3
LiberationSerif-BoldItalic.ttf
  4

  0
STYLE
  5
53
  2
LiberationSerif-Italic
 70
0
 40
0.0
 41
1.0
 50
0.0
 71
0
 42
2.5
  3
LiberationSerif-Italic.ttf
  4

  0
STYLE
  5
54
  2
LiberationMono
 70
0
 40
0.0
 41
1.0
 50
0.0
 71
0
 42
2.5
  3
LiberationMono-Regular.ttf
  4

  0
STYLE
  5
55
  2
LiberationMono-Bold
 70
0
 40
0.0
 41
1.0
 50
0.0
 71
0
 42
2.5
  3
LiberationMono-Bold.ttf
  4

  0
STYLE
  5
56
  2
LiberationMono-BoldItalic
 70
0
 40
0.0
 41
1.0
 50
0.0
 71
0
 42
2.5
  3
LiberationMono-BoldItalic.ttf
  4

  0
STYLE
  5
57
  2
LiberationMono-Italic
 70
0
 40
0.0
 41
1.0
 50
0.0
 71
0
 42
2.5
  3
LiberationMono-Italic.ttf
  4

  0
STYLE
  5
8E
  2
TATE
 70
4
 40
0.0
 41
1.0
 50
0.0
 71
0
 42
2.5
  3
txt
  4
@extfont2
  0
STYLE
  5
8F
  2
YOKO
 70
0
 40
0.0
 41
1.0
 50
0.0
 71
0
 42
2.5
  3
txt
  4
extfont2
  0
ENDTAB
  0
TABLE
  2
VIEW
 70
0
  0
ENDTAB
  0
TABLE
  2
UCS
 70
0
  0
ENDTAB
  0
TABLE
  2
APPID
 70
1
  0
APPID
  5
2A
  2
ACAD
 70
0
  0
ENDTAB
  0
TABLE
  2
DIMSTYLE
 70
11
  0
DIMSTYLE
105
2B
  2
Standard
 70
0
  3

  4

  5

  6

  7

 40
1.0
 41
2.5
 42
0.625
 43
3.75
 44
1.25
 45
0.0
 46
0.0
 47
0.0
 48
0.0
140
2.5
141
2.5
142
0.0
143
0.03937007874
144
1.0
145
0.0
146
1.0
147
0.625
 71
0
 72
0
 73
0
 74
0
 75
0
 76
0
 77
1
 78
8
170
0
171
3
172
1
173
0
174
0
175
0
176
0
177
0
178
0
  0
DIMSTYLE
105
71
  2
BASIC
 70
0
  3

  4

  5
ARCHTICK
  6

  7

 40
1.0
 41
0.175
 42
0.125
 43
3.75
 44
0.375
 45
0.0
 46
0.0
 47
0.0
 48
0.0
140
0.25
141
2.5
142
0.0
143
0.03937007874
144
100.0
145
0.0
146
1.0
147
0.1
 71
0
 72
0
 73
0
 74
0
 75
0
 76
0
 77
1
 78
8
170
0
171
3
172
1
173
0
174
0
175
0
176
0
177
0
178
0
  0
DIMSTYLE
105
7D
  2
EZ_M_100_H25_CM
 70
0
  3

  4

  5

  6

  7

 40
1.0
 41
0.25
 42
0.125
 43
3.75
 44
0.375
 45
0.0
 46
0.0
 47
0.0
 48
0.0
140
0.25
141
2.5
142
0.125
143
0.03937007874
144
100.0
145
0.0
146
1.0
147
0.1
 71
0
 72
0
 73
0
 74
0
 75
0
 76
0
 77
1
 78
8
170
0
171
3
172
1
173
0
174
0
175
0
176
0
177
0
178
0
  0
DIMSTYLE
105
7E
  2
EZ_M_50_H25_CM
 70
0
  3

  4

  5

  6

  7

 40
1.0
 41
0.125
 42
0.0625
 43
3.75
 44
0.1875
 45
0.0
 46
0.0
 47
0.0
 48
0.0
140
0.125
141
2.5
142
0.0625
143
0.03937007874
144
100.0
145
0.0
146
1.0
147
0.05
 71
0
 72
0
 73
0
 74
0
 75
0
 76
0
 77
1
 78
8
170
0
171
3
172
1
173
0
174
0
175
0
176
0
177
0
178
0
  0
DIMSTYLE
105
7F
  2
EZ_M_25_H25_CM
 70
0
  3

  4

  5

  6

  7

 40
1.0
 41
0.0625
 42
0.03125
 43
3.75
 44
0.09375
 45
0.0
 46
0.0
 47
0.0
 48
0.0
140
0.0625
141
2.5
142
0.03125
143
0.03937007874
144
100.0
145
0.0
146
1.0
147
0.025
 71
0
 72
0
 73
0
 74
0
 75
0
 76
0
 77
1
 78
8
170
0
171
3
172
1
173
0
174
0
175
0
176
0
177
0
178
0
  0
DIMSTYLE
105
80
  2
EZ_M_20_H25_CM
 70
0
  3

  4

  5

  6

  7

 40
1.0
 41
0.05
 42
0.025
 43
3.75
 44
0.07500000000000001
 45
0.0
 46
0.0
 47
0.0
 48
0.0
140
0.05
141
2.5
142
0.025
143
0.03937007874
144
100.0
145
0.0
146
1.0
147
0.020000000000000004
 71
0
 72
0
 73
0
 74
0
 75
0
 76
0
 77
1
 78
8
170
0
171
3
172
1
173
0
174
0
175
0
176
0
177
0
178
0
  0
DIMSTYLE
105
81
  2
EZ_M_10_H25_CM
 70
0
  3

  4

  5

  6

  7

 40
1.0
 41
0.025
 42
0.0125
 43
3.75
 44
0.037500000000000006
 45
0.0
 46
0.0
 47
0.0
 48
0.0
140
0.025
141
2.5
142
0.0125
143
0.03937007874
144
100.0
145
0.0
146
1.0
147
0.010000000000000002
 71
0
 72
0
 73
0
 74
0
 75
0
 76
0
 77
1
 78
8
170
0
171
3
172
1
173
0
174
0
175
0
176
0
177
0
178
0
  0
DIMSTYLE
105
82
  2
EZ_M_5_H25_CM
 70
0
  3

  4

  5

  6

  7

 40
1.0
 41
0.0125
 42
0.00625
 43
3.75
 44
0.018750000000000003
 45
0.0
 46
0.0
 47
0.0
 48
0.0
140
0.0125
141
2.5
142
0.00625
143
0.03937007874
144
100.0
145
0.0
146
1.0
147
0.005000000000000001
 71
0
 72
0
 73
0
 74
0
 75
0
 76
0
 77
1
 78
8
170
0
171
3
172
1
173
0
174
0
175
0
176
0
177
0
178
0
  0
DIMSTYLE
105
83
  2
EZ_M_1_H25_CM
 70
0
  3

  4

  5

  6

  7

 40
1.0
 41
0.0025
 42
0.00125
 43
3.75
 44
0.00375
 45
0.0
 46
0.0
 47
0.0
 48
0.0
140
0.0025
141
2.5
142
0.00125
143
0.03937007874
144
100.0
145
0.0
146
1.0
147
0.001
 71
0
 72
0
 73
0
 74
0
 75
0
 76
0
 77
1
 78
8
170
0
171
3
172
1
173
0
174
0
175
0
176
0
177
0
178
0
  0
DIMSTYLE
105
84
  2
EZ_RADIUS
 70
0
  3

  4

  5
CLOSEDBLANK
  6

  7

 40
1.0
 41
0.25
 42
0.125
 43
3.75
 44
0.375
 45
0.0
 46
0.0
 47
0.0
 48
0.0
140
0.25
141
0.0
142
0.0
143
0.03937007874
144
100.0
145
0.0
146
1.0
147
0.1
 71
0
 72
0
 73
0
 74
0
 75
0
 76
0
 77
1
 78
8
170
0
171
3
172
0
173
0
174
0
175
0
176
0
177
0
178
0
  0
DIMSTYLE
105
8D
  2
EZ_RADIUS_INSIDE
 70
0
  3

  4

  5
CLOSEDBLANK
  6

  7

 40
1.0
 41
0.25
 42
0.125
 43
3.75
 44
0.375
 45
0.0
 46
0.0
 47
0.0
 48
0.0
140
0.25
141
0.0
142
0.0
143
0.03937007874
144
100.0
145
0.0
146
1.0
147
0.1
 71
0
 72
0
 73
0
 74
0
 75
0
 76
0
 77
0
 78
8
170
0
171
3
172
0
173
0
174
1
175
0
176
0
177
0
178
0
  0
ENDTAB
  0
ENDSEC
  0
SECTION
  2
BLOCKS
  0
BLOCK
  5
18
  8
0
  2
$Model_Space
 70
0
 10
0.0
 20
0.0
 30
0.0
  3
$Model_Space
  1

  0
ENDBLK
  5
19
  8
0
  0
BLOCK
  5
1C
  8
0
  2
$Paper_Space
 70
0
 10
0.0
 20
0.0
 30
0.0
  3
$Paper_Space
  1

  0
ENDBLK
  5
1D
  8
0
  0
BLOCK
  5
73
  8
0
  2
_ARCHTICK
 70
0
 10
0.0
 20
0.0
 30
0.0
  3
_ARCHTICK
  1

  0
POLYLINE
  5
75
  8
0
  6
BYBLOCK
 62
0
 66
1
 10
0.0
 20
0.0
 30
0.0
 70
0
 40
0.15
 41
0.15
  0
VERTEX
  5
77
  8
0
  6
BYBLOCK
 10
-0.5
 20
-0.5000000000000001
 30
0.0
 70
0
  0
VERTEX
  5
78
  8
0
  6
BYBLOCK
 10
0.5000000000000001
 20
0.5
 30
0.0
 70
0
  0
SEQEND
  5
76
  8
0
  0
ENDBLK
  5
74
  8
0
  0
BLOCK
  5
7A
  8
0
  2
_CLOSEDFILLED
 70
0
 10
0.0
 20
0.0
 30
0.0
  3
_CLOSEDFILLED
  1

  0
SOLID
  5
7C
  8
0
  6
BYBLOCK
 62
0
 10
-1.0
 20
0.1643989837240255
 30
0.0
 11
0.0
 21
0.0
 31
0.0
 12
-1.0
 22
-0.1643989837240255
 32
0.0
 13
-1.0
 23
-0.1643989837240255
 33
0.0
  0
ENDBLK
  5
7B
  8
0
  0
BLOCK
  5
86
  8
0
  2
_CLOSEDBLANK
 70
0
 10
0.0
 20
0.0
 30
0.0
  3
_CLOSEDBLANK
  1

  0
POLYLINE
  5
88
  8
0
  6
BYBLOCK
 62
0
 66
1
 10
0.0
 20
0.0
 30
0.0
 70
1
  0
VERTEX
  5
8A
  8
0
  6
BYBLOCK
 10
-1.0
 20
0.1643989837240255
 30
0.0
 70
0
  0
VERTEX
  5
8B
  8
0
  6
BYBLOCK
 10
0.0
 20
0.0
 30
0.0
 70
0
  0
VERTEX
  5
8C
  8
0
  6
BYBLOCK
 10
-1.0
 20
-0.1643989837240255
 30
0.0
 70
0
  0
SEQEND
  5
89
  8
0
  0
ENDBLK
  5
87
  8
0
  0
ENDSEC
  0
SECTION
  2
ENTITIES
  0
POLYLINE
  5
AA
  8
P_Aisle_Sidewalk
 66
1
 10
0.0
 20
0.0
 30
0.0
 70
1
  0
VERTEX
  5
AC
  8
P_Aisle_Sidewalk
 10
-6022.270879019192
 20
-33614.4982450964
 30
0.0
 70
0
  0
VERTEX
  5
AD
  8
P_Aisle_Sidewalk
 10
-6022.194838818092
 20
-33614.22642351172
 30
0.0
 70
0
  0
VERTEX
  5
AE
  8
P_Aisle_Sidewalk
 10
-6021.631995108982
 20
-33611.99895611094
 30
0.0
 70
0
  0
VERTEX
  5
AF
  8
P_Aisle_Sidewalk
 10
-6021.486870952633
 20
-33610.526408922924
 30
0.0
 70
0
  0
VERTEX
  5
B0
  8
P_Aisle_Sidewalk
 10
-6021.903285281525
 20
-33609.355562525976
 30
0.0
 70
0
  0
VERTEX
  5
B1
  8
P_Aisle_Sidewalk
 10
-6022.8811099462655
 20
-33608.29761615944
 30
0.0
 70
0
  0
VERTEX
  5
B2
  8
P_Aisle_Sidewalk
 10
-6053.927003607226
 20
-33594.31283494808
 30
0.0
 70
0
  0
VERTEX
  5
B3
  8
P_Aisle_Sidewalk
 10
-6056.770715299609
 20
-33593.01950284252
 30
0.0
 70
0
  0
VERTEX
  5
B4
  8
P_Aisle_Sidewalk
 10
-6057.855370479363
 20
-33592.897931282634
 30
0.0
 70
0
  0
VERTEX
  5
B5
  8
P_Aisle_Sidewalk
 10
-6058.765557350804
 20
-33592.77647854807
 30
0.0
 70
0
  0
VERTEX
  5
B6
  8
P_Aisle_Sidewalk
 10
-6059.524362244222
 20
-33593.13845777701
 30
0.0
 70
0
  0
VERTEX
  5
B7
  8
P_Aisle_Sidewalk
 10
-6059.888593557582
 20
-33593.319457717575
 30
0.0
 70
0
  0
VERTEX
  5
B8
  8
P_Aisle_Sidewalk
 10
-6060.799620027956
 20
-33594.42898243281
 30
0.0
 70
0
  0
VERTEX
  5
B9
  8
P_Aisle_Sidewalk
 10
-6061.908531205663
 20
-33596.50503020033
 30
0.0
 70
0
  0
VERTEX
  5
BA
  8
P_Aisle_Sidewalk
 10
-6058.175668884296
 20
-33595.397429559416
 30
0.0
 70
0
  0
VERTEX
  5
BB
  8
P_Aisle_Sidewalk
 10
-6055.233508761892
 20
-33596.932494062974
 30
0.0
 70
0
  0
VERTEX
  5
BC
  8
P_Aisle_Sidewalk
 10
-6039.642277194023
 20
-33603.890962159494
 30
0.0
 70
0
  0
VERTEX
  5
BD
  8
P_Aisle_Sidewalk
 10
-6037.412812553018
 20
-33604.919552226085
 30
0.0
 70
0
  0
VERTEX
  5
BE
  8
P_Aisle_Sidewalk
 10
-6024.232691492724
 20
-33610.28288301222
 30
0.0
 70
0
  0
VERTEX
  5
BF
  8
P_Aisle_Sidewalk
 10
-6022.270879019192
 20
-33614.4982450964
 30
0.0
 70
0
  0
SEQEND
  5
AB
  8
P_Aisle_Sidewalk
  0
POLYLINE
  5
C0
  8
P_Aisle_Sidewalk
 66
1
 10
0.0
 20
0.0
 30
0.0
 70
1
  0
VERTEX
  5
C2
  8
P_Aisle_Sidewalk
 10
-6011.346952157559
 20
-33613.516325512435
 30
0.0
 70
0
  0
VERTEX
  5
C3
  8
P_Aisle_Sidewalk
 10
-6013.0688821593985
 20
-33613.515160510266
 30
0.0
 70
0
  0
VERTEX
  5
C4
  8
P_Aisle_Sidewalk
 10
-6013.926417239198
 20
-33614.0507743677
 30
0.0
 70
0
  0
VERTEX
  5
C5
  8
P_Aisle_Sidewalk
 10
-6014.609836416673
 20
-33615.10759618528
 30
0.0
 70
0
  0
VERTEX
  5
C6
  8
P_Aisle_Sidewalk
 10
-6015.574756151714
 20
-33617.39520889469
 30
0.0
 70
0
  0
VERTEX
  5
C7
  8
P_Aisle_Sidewalk
 10
-6015.696289315799
 20
-33617.636791694094
 30
0.0
 70
0
  0
VERTEX
  5
C8
  8
P_Aisle_Sidewalk
 10
-6011.8124017054815
 20
-33617.54879567423
 30
0.0
 70
0
  0
VERTEX
  5
C9
  8
P_Aisle_Sidewalk
 10
-5995.84230905027
 20
-33625.23245485229
 30
0.0
 70
0
  0
VERTEX
  5
CA
  8
P_Aisle_Sidewalk
 10
-5979.295844972197
 20
-33633.15814516384
 30
0.0
 70
0
  0
VERTEX
  5
CB
  8
P_Aisle_Sidewalk
 10
-5979.198446473279
 20
-33634.963150042124
 30
0.0
 70
0
  0
VERTEX
  5
CC
  8
P_Aisle_Sidewalk
 10
-5978.461427711945
 20
-33633.15870656981
 30
0.0
 70
0
  0
VERTEX
  5
CD
  8
P_Aisle_Sidewalk
 10
-5978.3170775478375
 20
-33632.82651363613
 30
0.0
 70
0
  0
VERTEX
  5
CE
  8
P_Aisle_Sidewalk
 10
-5978.164171404722
 20
-33631.051885773646
 30
0.0
 70
0
  0
VERTEX
  5
CF
  8
P_Aisle_Sidewalk
 10
-5978.481654320445
 20
-33629.39777450648
 30
0.0
 70
0
  0
VERTEX
  5
D0
  8
P_Aisle_Sidewalk
 10
-5979.049802588346
 20
-33628.24948171423
 30
0.0
 70
0
  0
VERTEX
  5
D1
  8
P_Aisle_Sidewalk
 10
-5980.960811415497
 20
-33627.40991903355
 30
0.0
 70
0
  0
VERTEX
  5
D2
  8
P_Aisle_Sidewalk
 10
-6010.338354102643
 20
-33613.93992144382
 30
0.0
 70
0
  0
VERTEX
  5
D3
  8
P_Aisle_Sidewalk
 10
-6011.346952157559
 20
-33613.516325512435
 30
0.0
 70
0
  0
SEQEND
  5
C1
  8
P_Aisle_Sidewalk
  0
POLYLINE
  5
D4
  8
P_Aisle_Sidewalk
 66
1
 10
0.0
 20
0.0
 30
0.0
 70
1
  0
VERTEX
  5
D6
  8
P_Aisle_Sidewalk
 10
-5973.159268059345
 20
-33633.43414578748
 30
0.0
 70
0
  0
VERTEX
  5
D7
  8
P_Aisle_Sidewalk
 10
-5973.850061326314
 20
-33634.181334106004
 30
0.0
 70
0
  0
VERTEX
  5
D8
  8
P_Aisle_Sidewalk
 10
-5957.0832996433055
 20
-33641.69177599262
 30
0.0
 70
0
  0
VERTEX
  5
D9
  8
P_Aisle_Sidewalk
 10
-5950.561579114867
 20
-33644.5508222859
 30
0.0
 70
0
  0
VERTEX
  5
DA
  8
P_Aisle_Sidewalk
 10
-5950.189201020466
 20
-33643.53154409616
 30
0.0
 70
0
  0
VERTEX
  5
DB
  8
P_Aisle_Sidewalk
 10
-5950.143060271947
 20
-33642.59512017887
 30
0.0
 70
0
  0
VERTEX
  5
DC
  8
P_Aisle_Sidewalk
 10
-5950.4611151966155
 20
-33641.7868374058
 30
0.0
 70
0
  0
VERTEX
  5
DD
  8
P_Aisle_Sidewalk
 10
-5951.780365429924
 20
-33640.81929107782
 30
0.0
 70
0
  0
VERTEX
  5
DE
  8
P_Aisle_Sidewalk
 10
-5953.44868025502
 20
-33640.040312114215
 30
0.0
 70
0
  0
VERTEX
  5
DF
  8
P_Aisle_Sidewalk
 10
-5970.632488104073
 20
-33632.28793279406
 30
0.0
 70
0
  0
VERTEX
  5
E0
  8
P_Aisle_Sidewalk
 10
-5971.92976964137
 20
-33632.498518365544
 30
0.0
 70
0
  0
VERTEX
  5
E1
  8
P_Aisle_Sidewalk
 10
-5973.159268059345
 20
-33633.43414578748
 30
0.0
 70
0
  0
SEQEND
  5
D5
  8
P_Aisle_Sidewalk
  0
POLYLINE
  5
E2
  8
P_Aisle_Sidewalk
 66
1
 10
0.0
 20
0.0
 30
0.0
 70
1
  0
VERTEX
  5
E4
  8
P_Aisle_Sidewalk
 10
-5906.543156125534
 20
-33611.7514610814
 30
0.0
 70
0
  0
VERTEX
  5
E5
  8
P_Aisle_Sidewalk
 10
-5898.998376927133
 20
-33598.963345608136
 30
0.0
 70
0
  0
VERTEX
  5
E6
  8
P_Aisle_Sidewalk
 10
-5900.446942309097
 20
-33598.53947090727
 30
0.0
 70
0
  0
VERTEX
  5
E7
  8
P_Aisle_Sidewalk
 10
-5901.3117788784175
 20
-33598.65972889457
 30
0.0
 70
0
  0
VERTEX
  5
E8
  8
P_Aisle_Sidewalk
 10
-5902.214583510238
 20
-33598.840377726
 30
0.0
 70
0
  0
VERTEX
  5
E9
  8
P_Aisle_Sidewalk
 10
-5902.905393202898
 20
-33599.625328732836
 30
0.0
 70
0
  0
VERTEX
  5
EA
  8
P_Aisle_Sidewalk
 10
-5906.539275927263
 20
-33605.91374753955
 30
0.0
 70
0
  0
VERTEX
  5
EB
  8
P_Aisle_Sidewalk
 10
-5926.770623331447
 20
-33640.896422870304
 30
0.0
 70
0
  0
VERTEX
  5
EC
  8
P_Aisle_Sidewalk
 10
-5928.904791998913
 20
-33644.806963590665
 30
0.0
 70
0
  0
VERTEX
  5
ED
  8
P_Aisle_Sidewalk
 10
-5929.079583770708
 20
-33645.290178591145
 30
0.0
 70
0
  0
VERTEX
  5
EE
  8
P_Aisle_Sidewalk
 10
-5928.928435665172
 20
-33646.136109836334
 30
0.0
 70
0
  0
VERTEX
  5
EF
  8
P_Aisle_Sidewalk
 10
-5928.511805832289
 20
-33647.00487445274
 30
0.0
 70
0
  0
VERTEX
  5
F0
  8
P_Aisle_Sidewalk
 10
-5927.609842073245
 20
-33648.09297259416
 30
0.0
 70
0
  0
VERTEX
  5
F1
  8
P_Aisle_Sidewalk
 10
-5923.227621246467
 20
-33640.12092372838
 30
0.0
 70
0
  0
VERTEX
  5
F2
  8
P_Aisle_Sidewalk
 10
-5906.543156125534
 20
-33611.7514610814
 30
0.0
 70
0
  0
SEQEND
  5
E3
  8
P_Aisle_Sidewalk
  0
POLYLINE
  5
F3
  8
P_Aisle_Sidewalk
 66
1
 10
0.0
 20
0.0
 30
0.0
 70
1
  0
VERTEX
  5
F5
  8
P_Aisle_Sidewalk
 10
-5911.701769138517
 20
-33578.15667093314
 30
0.0
 70
0
  0
VERTEX
  5
F6
  8
P_Aisle_Sidewalk
 10
-5915.780008482977
 20
-33585.35101597351
 30
0.0
 70
0
  0
VERTEX
  5
F7
  8
P_Aisle_Sidewalk
 10
-5917.549307172319
 20
-33588.1440806989
 30
0.0
 70
0
  0
VERTEX
  5
F8
  8
P_Aisle_Sidewalk
 10
-5941.880872427173
 20
-33629.090033089786
 30
0.0
 70
0
  0
VERTEX
  5
F9
  8
P_Aisle_Sidewalk
 10
-5944.189938319338
 20
-33633.63481997953
 30
0.0
 70
0
  0
VERTEX
  5
FA
  8
P_Aisle_Sidewalk
 10
-5946.331536827972
 20
-33637.30368278571
 30
0.0
 70
0
  0
VERTEX
  5
FB
  8
P_Aisle_Sidewalk
 10
-5945.1254240505405
 20
-33637.3044897732
 30
0.0
 70
0
  0
VERTEX
  5
FC
  8
P_Aisle_Sidewalk
 10
-5943.509445617693
 20
-33636.9430723404
 30
0.0
 70
0
  0
VERTEX
  5
FD
  8
P_Aisle_Sidewalk
 10
-5942.993340985335
 20
-33636.52050273385
 30
0.0
 70
0
  0
VERTEX
  5
FE
  8
P_Aisle_Sidewalk
 10
-5942.279874097076
 20
-33635.89415976954
 30
0.0
 70
0
  0
VERTEX
  5
FF
  8
P_Aisle_Sidewalk
 10
-5940.487594327189
 20
-33632.791466510396
 30
0.0
 70
0
  0
VERTEX
  5
100
  8
P_Aisle_Sidewalk
 10
-5908.948209251625
 20
-33578.15850235409
 30
0.0
 70
0
  0
VERTEX
  5
101
  8
P_Aisle_Sidewalk
 10
-5906.518027657352
 20
-33573.946102864946
 30
0.0
 70
0
  0
VERTEX
  5
102
  8
P_Aisle_Sidewalk
 10
-5900.681809443995
 20
-33563.83786238527
 30
0.0
 70
0
  0
VERTEX
  5
103
  8
P_Aisle_Sidewalk
 10
-5884.080767406149
 20
-33535.11737777461
 30
0.0
 70
0
  0
VERTEX
  5
104
  8
P_Aisle_Sidewalk
 10
-5883.761455188963
 20
-33534.030106471284
 30
0.0
 70
0
  0
VERTEX
  5
105
  8
P_Aisle_Sidewalk
 10
-5883.715461996663
 20
-33533.305148508436
 30
0.0
 70
0
  0
VERTEX
  5
106
  8
P_Aisle_Sidewalk
 10
-5883.813558791718
 20
-33532.52723146592
 30
0.0
 70
0
  0
VERTEX
  5
107
  8
P_Aisle_Sidewalk
 10
-5884.328794419078
 20
-33531.65086278003
 30
0.0
 70
0
  0
VERTEX
  5
108
  8
P_Aisle_Sidewalk
 10
-5885.13242490177
 20
-33530.99331000303
 30
0.0
 70
0
  0
VERTEX
  5
109
  8
P_Aisle_Sidewalk
 10
-5888.671763231069
 20
-33537.75752434077
 30
0.0
 70
0
  0
VERTEX
  5
10A
  8
P_Aisle_Sidewalk
 10
-5890.342537145788
 20
-33540.70923623559
 30
0.0
 70
0
  0
VERTEX
  5
10B
  8
P_Aisle_Sidewalk
 10
-5893.494084235914
 20
-33546.061493958354
 30
0.0
 70
0
  0
VERTEX
  5
10C
  8
P_Aisle_Sidewalk
 10
-5903.579490378088
 20
-33563.835937771364
 30
0.0
 70
0
  0
VERTEX
  5
10D
  8
P_Aisle_Sidewalk
 10
-5906.514749805293
 20
-33569.0146525843
 30
0.0
 70
0
  0
VERTEX
  5
10E
  8
P_Aisle_Sidewalk
 10
-5911.701769138517
 20
-33578.15667093314
 30
0.0
 70
0
  0
SEQEND
  5
F4
  8
P_Aisle_Sidewalk
  0
POLYLINE
  5
10F
  8
P_Aisle_Sidewalk
 66
1
 10
0.0
 20
0.0
 30
0.0
 70
1
  0
VERTEX
  5
111
  8
P_Aisle_Sidewalk
 10
-5890.693548480389
 20
-33578.170622138154
 30
0.0
 70
0
  0
VERTEX
  5
112
  8
P_Aisle_Sidewalk
 10
-5898.827137714835
 20
-33592.40075829977
 30
0.0
 70
0
  0
VERTEX
  5
113
  8
P_Aisle_Sidewalk
 10
-5899.123657019917
 20
-33593.42763517449
 30
0.0
 70
0
  0
VERTEX
  5
114
  8
P_Aisle_Sidewalk
 10
-5899.071174618371
 20
-33594.35656766858
 30
0.0
 70
0
  0
VERTEX
  5
115
  8
P_Aisle_Sidewalk
 10
-5898.828957478483
 20
-33595.14213793017
 30
0.0
 70
0
  0
VERTEX
  5
116
  8
P_Aisle_Sidewalk
 10
-5897.89652773909
 20
-33596.0414466068
 30
0.0
 70
0
  0
VERTEX
  5
117
  8
P_Aisle_Sidewalk
 10
-5887.3786568320465
 20
-33578.17281896509
 30
0.0
 70
0
  0
VERTEX
  5
118
  8
P_Aisle_Sidewalk
 10
-5878.979544641279
 20
-33563.852246801864
 30
0.0
 70
0
  0
VERTEX
  5
119
  8
P_Aisle_Sidewalk
 10
-5874.840747964757
 20
-33556.79010194388
 30
0.0
 70
0
  0
VERTEX
  5
11A
  8
P_Aisle_Sidewalk
 10
-5876.562447191178
 20
-33556.45667631785
 30
0.0
 70
0
  0
VERTEX
  5
11B
  8
P_Aisle_Sidewalk
 10
-5877.343778396428
 20
-33556.486367505415
 30
0.0
 70
0
  0
VERTEX
  5
11C
  8
P_Aisle_Sidewalk
 10
-5878.815973836778
 20
-33557.391631538536
 30
0.0
 70
0
  0
VERTEX
  5
11D
  8
P_Aisle_Sidewalk
 10
-5882.506826404774
 20
-33563.8499125021
 30
0.0
 70
0
  0
VERTEX
  5
11E
  8
P_Aisle_Sidewalk
 10
-5890.693548480389
 20
-33578.170622138154
 30
0.0
 70
0
  0
SEQEND
  5
110
  8
P_Aisle_Sidewalk
  0
POLYLINE
  5
11F
  8
P_Aisle_Sidewalk
 66
1
 10
0.0
 20
0.0
 30
0.0
 70
1
  0
VERTEX
  5
121
  8
P_Aisle_Sidewalk
 10
-6026.7921578436335
 20
-33514.22364801436
 30
0.0
 70
0
  0
VERTEX
  5
122
  8
P_Aisle_Sidewalk
 10
-6025.395343524057
 20
-33512.63113467254
 30
0.0
 70
0
  0
VERTEX
  5
123
  8
P_Aisle_Sidewalk
 10
-6013.591655536491
 20
-33489.280994378256
 30
0.0
 70
0
  0
VERTEX
  5
124
  8
P_Aisle_Sidewalk
 10
-6013.151170821662
 20
-33488.50344416787
 30
0.0
 70
0
  0
VERTEX
  5
125
  8
P_Aisle_Sidewalk
 10
-6012.884942877267
 20
-33487.41614719961
 30
0.0
 70
0
  0
VERTEX
  5
126
  8
P_Aisle_Sidewalk
 10
-6012.929827244599
 20
-33486.487230225284
 30
0.0
 70
0
  0
VERTEX
  5
127
  8
P_Aisle_Sidewalk
 10
-6013.618879904196
 20
-33484.674302541294
 30
0.0
 70
0
  0
VERTEX
  5
128
  8
P_Aisle_Sidewalk
 10
-6014.71859628501
 20
-33484.409240978675
 30
0.0
 70
0
  0
VERTEX
  5
129
  8
P_Aisle_Sidewalk
 10
-6018.602221132155
 20
-33484.195157585935
 30
0.0
 70
0
  0
VERTEX
  5
12A
  8
P_Aisle_Sidewalk
 10
-6016.42057751677
 20
-33488.591854253296
 30
0.0
 70
0
  0
VERTEX
  5
12B
  8
P_Aisle_Sidewalk
 10
-6028.588842649235
 20
-33512.62896866916
 30
0.0
 70
0
  0
VERTEX
  5
12C
  8
P_Aisle_Sidewalk
 10
-6029.523125905883
 20
-33514.49366544762
 30
0.0
 70
0
  0
VERTEX
  5
12D
  8
P_Aisle_Sidewalk
 10
-6028.6130491313925
 20
-33514.766153015604
 30
0.0
 70
0
  0
VERTEX
  5
12E
  8
P_Aisle_Sidewalk
 10
-6027.94552421096
 20
-33514.76660586393
 30
0.0
 70
0
  0
VERTEX
  5
12F
  8
P_Aisle_Sidewalk
 10
-6027.604114768306
 20
-33514.676214090505
 30
0.0
 70
0
  0
VERTEX
  5
130
  8
P_Aisle_Sidewalk
 10
-6027.384073500003
 20
-33514.58573998308
 30
0.0
 70
0
  0
VERTEX
  5
131
  8
P_Aisle_Sidewalk
 10
-6026.966727012437
 20
-33514.374568548024
 30
0.0
 70
0
  0
VERTEX
  5
132
  8
P_Aisle_Sidewalk
 10
-6026.7921578436335
 20
-33514.22364801436
 30
0.0
 70
0
  0
SEQEND
  5
120
  8
P_Aisle_Sidewalk
  0
POLYLINE
  5
133
  8
P_Aisle_Sidewalk
 66
1
 10
0.0
 20
0.0
 30
0.0
 70
1
  0
VERTEX
  5
135
  8
P_Aisle_Sidewalk
 10
-6051.708532428745
 20
-33578.062426363
 30
0.0
 70
0
  0
VERTEX
  5
136
  8
P_Aisle_Sidewalk
 10
-6054.192376963247
 20
-33582.99974411451
 30
0.0
 70
0
  0
VERTEX
  5
137
  8
P_Aisle_Sidewalk
 10
-6055.126590634024
 20
-33584.74362082415
 30
0.0
 70
0
  0
VERTEX
  5
138
  8
P_Aisle_Sidewalk
 10
-6055.226165357492
 20
-33586.1557782203
 30
0.0
 70
0
  0
VERTEX
  5
139
  8
P_Aisle_Sidewalk
 10
-6054.878031810657
 20
-33587.33412864773
 30
0.0
 70
0
  0
VERTEX
  5
13A
  8
P_Aisle_Sidewalk
 10
-6054.71131387536
 20
-33587.57590651028
 30
0.0
 70
0
  0
VERTEX
  5
13B
  8
P_Aisle_Sidewalk
 10
-6054.483988530452
 20
-33587.93100580276
 30
0.0
 70
0
  0
VERTEX
  5
13C
  8
P_Aisle_Sidewalk
 10
-6052.649000023131
 20
-33588.989537137095
 30
0.0
 70
0
  0
VERTEX
  5
13D
  8
P_Aisle_Sidewalk
 10
-6051.367428896559
 20
-33589.56436270658
 30
0.0
 70
0
  0
VERTEX
  5
13E
  8
P_Aisle_Sidewalk
 10
-6011.638452828948
 20
-33607.104456959525
 30
0.0
 70
0
  0
VERTEX
  5
13F
  8
P_Aisle_Sidewalk
 10
-6008.1046251791595
 20
-33608.67011617694
 30
0.0
 70
0
  0
VERTEX
  5
140
  8
P_Aisle_Sidewalk
 10
-6003.933790252442
 20
-33610.50807766268
 30
0.0
 70
0
  0
VERTEX
  5
141
  8
P_Aisle_Sidewalk
 10
-5950.873929428584
 20
-33635.22382854498
 30
0.0
 70
0
  0
VERTEX
  5
142
  8
P_Aisle_Sidewalk
 10
-5946.596932277067
 20
-33637.152464188555
 30
0.0
 70
0
  0
VERTEX
  5
143
  8
P_Aisle_Sidewalk
 10
-5946.331536827972
 20
-33637.30368278571
 30
0.0
 70
0
  0
VERTEX
  5
144
  8
P_Aisle_Sidewalk
 10
-5944.189938319338
 20
-33633.63481997953
 30
0.0
 70
0
  0
VERTEX
  5
145
  8
P_Aisle_Sidewalk
 10
-5951.8492666694165
 20
-33630.43517796213
 30
0.0
 70
0
  0
VERTEX
  5
146
  8
P_Aisle_Sidewalk
 10
-5958.135822609694
 20
-33627.576292877005
 30
0.0
 70
0
  0
VERTEX
  5
147
  8
P_Aisle_Sidewalk
 10
-5968.760021280899
 20
-33622.75096174505
 30
0.0
 70
0
  0
VERTEX
  5
148
  8
P_Aisle_Sidewalk
 10
-5973.029258663193
 20
-33620.58065855906
 30
0.0
 70
0
  0
VERTEX
  5
149
  8
P_Aisle_Sidewalk
 10
-5990.08396002142
 20
-33612.684856524844
 30
0.0
 70
0
  0
VERTEX
  5
14A
  8
P_Aisle_Sidewalk
 10
-5997.280660201543
 20
-33609.67429524632
 30
0.0
 70
0
  0
VERTEX
  5
14B
  8
P_Aisle_Sidewalk
 10
-6003.756903152486
 20
-33606.92853677511
 30
0.0
 70
0
  0
VERTEX
  5
14C
  8
P_Aisle_Sidewalk
 10
-6006.729621990362
 20
-33605.69554792194
 30
0.0
 70
0
  0
VERTEX
  5
14D
  8
P_Aisle_Sidewalk
 10
-6010.483343876262
 20
-33604.00135666146
 30
0.0
 70
0
  0
VERTEX
  5
14E
  8
P_Aisle_Sidewalk
 10
-6012.515673027019
 20
-33603.101291214756
 30
0.0
 70
0
  0
VERTEX
  5
14F
  8
P_Aisle_Sidewalk
 10
-6019.295125218279
 20
-33600.053237486725
 30
0.0
 70
0
  0
VERTEX
  5
150
  8
P_Aisle_Sidewalk
 10
-6025.649846819896
 20
-33597.103643841394
 30
0.0
 70
0
  0
VERTEX
  5
151
  8
P_Aisle_Sidewalk
 10
-6028.690706600289
 20
-33595.68935440308
 30
0.0
 70
0
  0
VERTEX
  5
152
  8
P_Aisle_Sidewalk
 10
-6030.60167812497
 20
-33594.81202401638
 30
0.0
 70
0
  0
VERTEX
  5
153
  8
P_Aisle_Sidewalk
 10
-6032.24727708593
 20
-33594.11612178678
 30
0.0
 70
0
  0
VERTEX
  5
154
  8
P_Aisle_Sidewalk
 10
-6034.7801473133495
 20
-33593.06467216924
 30
0.0
 70
0
  0
VERTEX
  5
155
  8
P_Aisle_Sidewalk
 10
-6035.462623582136
 20
-33592.73192009768
 30
0.0
 70
0
  0
VERTEX
  5
156
  8
P_Aisle_Sidewalk
 10
-6037.479730303124
 20
-33591.76389229297
 30
0.0
 70
0
  0
VERTEX
  5
157
  8
P_Aisle_Sidewalk
 10
-6039.466458354689
 20
-33590.743020697584
 30
0.0
 70
0
  0
VERTEX
  5
158
  8
P_Aisle_Sidewalk
 10
-6045.775668604162
 20
-33587.81610264472
 30
0.0
 70
0
  0
VERTEX
  5
159
  8
P_Aisle_Sidewalk
 10
-6048.149176753819
 20
-33586.67413427095
 30
0.0
 70
0
  0
VERTEX
  5
15A
  8
P_Aisle_Sidewalk
 10
-6049.498956120077
 20
-33586.00863883552
 30
0.0
 70
0
  0
VERTEX
  5
15B
  8
P_Aisle_Sidewalk
 10
-6050.68101455091
 20
-33584.1122804561
 30
0.0
 70
0
  0
VERTEX
  5
15C
  8
P_Aisle_Sidewalk
 10
-6047.6047420347
 20
-33578.06522018225
 30
0.0
 70
0
  0
VERTEX
  5
15D
  8
P_Aisle_Sidewalk
 10
-6044.703105951012
 20
-33572.25970799316
 30
0.0
 70
0
  0
VERTEX
  5
15E
  8
P_Aisle_Sidewalk
 10
-6040.411474250152
 20
-33563.74397935622
 30
0.0
 70
0
  0
VERTEX
  5
15F
  8
P_Aisle_Sidewalk
 10
-6024.61987553297
 20
-33532.432882821224
 30
0.0
 70
0
  0
VERTEX
  5
160
  8
P_Aisle_Sidewalk
 10
-6022.584323851343
 20
-33528.552555059054
 30
0.0
 70
0
  0
VERTEX
  5
161
  8
P_Aisle_Sidewalk
 10
-6020.495368317836
 20
-33524.21914738172
 30
0.0
 70
0
  0
VERTEX
  5
162
  8
P_Aisle_Sidewalk
 10
-6018.110456991475
 20
-33519.70469492808
 30
0.0
 70
0
  0
VERTEX
  5
163
  8
P_Aisle_Sidewalk
 10
-6014.540480697796
 20
-33512.638488445875
 30
0.0
 70
0
  0
VERTEX
  5
164
  8
P_Aisle_Sidewalk
 10
-6012.38332458496
 20
-33508.39575603529
 30
0.0
 70
0
  0
VERTEX
  5
165
  8
P_Aisle_Sidewalk
 10
-6010.514746506092
 20
-33504.63615397847
 30
0.0
 70
0
  0
VERTEX
  5
166
  8
P_Aisle_Sidewalk
 10
-6006.846063638257
 20
-33497.41143249871
 30
0.0
 70
0
  0
VERTEX
  5
167
  8
P_Aisle_Sidewalk
 10
-6006.329519980212
 20
-33496.33185539098
 30
0.0
 70
0
  0
VERTEX
  5
168
  8
P_Aisle_Sidewalk
 10
-6004.931956835975
 20
-33493.62165694202
 30
0.0
 70
0
  0
VERTEX
  5
169
  8
P_Aisle_Sidewalk
 10
-6003.952795601866
 20
-33492.68587941022
 30
0.0
 70
0
  0
VERTEX
  5
16A
  8
P_Aisle_Sidewalk
 10
-6002.920806527547
 20
-33492.15038972651
 30
0.0
 70
0
  0
VERTEX
  5
16B
  8
P_Aisle_Sidewalk
 10
-6001.790445936461
 20
-33491.96990700126
 30
0.0
 70
0
  0
VERTEX
  5
16C
  8
P_Aisle_Sidewalk
 10
-6000.7360830923035
 20
-33492.000826787546
 30
0.0
 70
0
  0
VERTEX
  5
16D
  8
P_Aisle_Sidewalk
 10
-5999.386171621355
 20
-33492.45485396929
 30
0.0
 70
0
  0
VERTEX
  5
16E
  8
P_Aisle_Sidewalk
 10
-5998.278868303615
 20
-33492.71991898893
 30
0.0
 70
0
  0
VERTEX
  5
16F
  8
P_Aisle_Sidewalk
 10
-5998.036193742388
 20
-33492.81070593893
 30
0.0
 70
0
  0
VERTEX
  5
170
  8
P_Aisle_Sidewalk
 10
-5992.583325303893
 20
-33494.445601659776
 30
0.0
 70
0
  0
VERTEX
  5
171
  8
P_Aisle_Sidewalk
 10
-5985.985325006778
 20
-33496.496622033985
 30
0.0
 70
0
  0
VERTEX
  5
172
  8
P_Aisle_Sidewalk
 10
-5971.060466165297
 20
-33501.558907164734
 30
0.0
 70
0
  0
VERTEX
  5
173
  8
P_Aisle_Sidewalk
 10
-5962.294031036747
 20
-33505.14441183679
 30
0.0
 70
0
  0
VERTEX
  5
174
  8
P_Aisle_Sidewalk
 10
-5959.503234796219
 20
-33506.14313993394
 30
0.0
 70
0
  0
VERTEX
  5
175
  8
P_Aisle_Sidewalk
 10
-5957.607340047027
 20
-33506.86184552765
 30
0.0
 70
0
  0
VERTEX
  5
176
  8
P_Aisle_Sidewalk
 10
-5944.063136446909
 20
-33512.11196393294
 30
0.0
 70
0
  0
VERTEX
  5
177
  8
P_Aisle_Sidewalk
 10
-5942.5919317106545
 20
-33512.6868957424
 30
0.0
 70
0
  0
VERTEX
  5
178
  8
P_Aisle_Sidewalk
 10
-5941.727421064344
 20
-33513.04241527733
 30
0.0
 70
0
  0
VERTEX
  5
179
  8
P_Aisle_Sidewalk
 10
-5933.438693752997
 20
-33516.393466180205
 30
0.0
 70
0
  0
VERTEX
  5
17A
  8
P_Aisle_Sidewalk
 10
-5931.080219599094
 20
-33517.32393035777
 30
0.0
 70
0
  0
VERTEX
  5
17B
  8
P_Aisle_Sidewalk
 10
-5909.649286775386
 20
-33525.94743475825
 30
0.0
 70
0
  0
VERTEX
  5
17C
  8
P_Aisle_Sidewalk
 10
-5906.486908071539
 20
-33527.1276425704
 30
0.0
 70
0
  0
VERTEX
  5
17D
  8
P_Aisle_Sidewalk
 10
-5889.829476126383
 20
-33533.4219295568
 30
0.0
 70
0
  0
VERTEX
  5
17E
  8
P_Aisle_Sidewalk
 10
-5888.671763231069
 20
-33537.75752434077
 30
0.0
 70
0
  0
VERTEX
  5
17F
  8
P_Aisle_Sidewalk
 10
-5885.13242490177
 20
-33530.99331000303
 30
0.0
 70
0
  0
VERTEX
  5
180
  8
P_Aisle_Sidewalk
 10
-5889.872196170057
 20
-33529.207907168995
 30
0.0
 70
0
  0
VERTEX
  5
181
  8
P_Aisle_Sidewalk
 10
-5906.484187390576
 20
-33523.034484502256
 30
0.0
 70
0
  0
VERTEX
  5
182
  8
P_Aisle_Sidewalk
 10
-5934.46026652206
 20
-33512.69233012064
 30
0.0
 70
0
  0
VERTEX
  5
183
  8
P_Aisle_Sidewalk
 10
-5958.788399729619
 20
-33503.462681139514
 30
0.0
 70
0
  0
VERTEX
  5
184
  8
P_Aisle_Sidewalk
 10
-5962.906297879276
 20
-33501.9268756427
 30
0.0
 70
0
  0
VERTEX
  5
185
  8
P_Aisle_Sidewalk
 10
-5969.390261234793
 20
-33499.48324721435
 30
0.0
 70
0
  0
VERTEX
  5
186
  8
P_Aisle_Sidewalk
 10
-5970.861502653771
 20
-33498.96872724818
 30
0.0
 70
0
  0
VERTEX
  5
187
  8
P_Aisle_Sidewalk
 10
-5975.085674828392
 20
-33497.55367637049
 30
0.0
 70
0
  0
VERTEX
  5
188
  8
P_Aisle_Sidewalk
 10
-6003.502062724818
 20
-33487.96622992278
 30
0.0
 70
0
  0
VERTEX
  5
189
  8
P_Aisle_Sidewalk
 10
-6004.313709891473
 20
-33487.96568152489
 30
0.0
 70
0
  0
VERTEX
  5
18A
  8
P_Aisle_Sidewalk
 10
-6005.171094543605
 20
-33488.29738682337
 30
0.0
 70
0
  0
VERTEX
  5
18B
  8
P_Aisle_Sidewalk
 10
-6006.036044328455
 20
-33488.598879238
 30
0.0
 70
0
  0
VERTEX
  5
18C
  8
P_Aisle_Sidewalk
 10
-6007.037956694872
 20
-33489.52708880782
 30
0.0
 70
0
  0
VERTEX
  5
18D
  8
P_Aisle_Sidewalk
 10
-6008.169700855496
 20
-33491.75414204249
 30
0.0
 70
0
  0
VERTEX
  5
18E
  8
P_Aisle_Sidewalk
 10
-6018.841464082596
 20
-33512.63557627221
 30
0.0
 70
0
  0
VERTEX
  5
18F
  8
P_Aisle_Sidewalk
 10
-6044.515258023728
 20
-33563.74118885166
 30
0.0
 70
0
  0
VERTEX
  5
190
  8
P_Aisle_Sidewalk
 10
-6051.708532428745
 20
-33578.062426363
 30
0.0
 70
0
  0
SEQEND
  5
134
  8
P_Aisle_Sidewalk
  0
POLYLINE
  5
191
  8
P_Aisle_Sidewalk
 66
1
 10
0.0
 20
0.0
 30
0.0
 70
1
  0
VERTEX
  5
193
  8
P_Aisle_Sidewalk
 10
-5906.439697561506
 20
-33456.10179769834
 30
0.0
 70
0
  0
VERTEX
  5
194
  8
P_Aisle_Sidewalk
 10
-5907.000760565937
 20
-33455.708726088465
 30
0.0
 70
0
  0
VERTEX
  5
195
  8
P_Aisle_Sidewalk
 10
-5919.981473147883
 20
-33447.302381886286
 30
0.0
 70
0
  0
VERTEX
  5
196
  8
P_Aisle_Sidewalk
 10
-5932.917853617699
 20
-33440.70095634933
 30
0.0
 70
0
  0
VERTEX
  5
197
  8
P_Aisle_Sidewalk
 10
-5933.3880504868275
 20
-33440.54960470931
 30
0.0
 70
0
  0
VERTEX
  5
198
  8
P_Aisle_Sidewalk
 10
-5934.169190138924
 20
-33440.30742278192
 30
0.0
 70
0
  0
VERTEX
  5
199
  8
P_Aisle_Sidewalk
 10
-5935.125016963536
 20
-33440.39740701437
 30
0.0
 70
0
  0
VERTEX
  5
19A
  8
P_Aisle_Sidewalk
 10
-5935.95979952437
 20
-33440.97079261762
 30
0.0
 70
0
  0
VERTEX
  5
19B
  8
P_Aisle_Sidewalk
 10
-5936.597663275126
 20
-33441.99742286635
 30
0.0
 70
0
  0
VERTEX
  5
19C
  8
P_Aisle_Sidewalk
 10
-5931.843089562134
 20
-33444.251060291106
 30
0.0
 70
0
  0
VERTEX
  5
19D
  8
P_Aisle_Sidewalk
 10
-5920.847840093257
 20
-33449.74106545306
 30
0.0
 70
0
  0
VERTEX
  5
19E
  8
P_Aisle_Sidewalk
 10
-5908.579816723525
 20
-33457.633410204915
 30
0.0
 70
0
  0
VERTEX
  5
19F
  8
P_Aisle_Sidewalk
 10
-5906.4416151033265
 20
-33458.98662168635
 30
0.0
 70
0
  0
VERTEX
  5
1A0
  8
P_Aisle_Sidewalk
 10
-5898.521937985093
 20
-33464.02144904834
 30
0.0
 70
0
  0
VERTEX
  5
1A1
  8
P_Aisle_Sidewalk
 10
-5885.738498078807
 20
-33472.57113310233
 30
0.0
 70
0
  0
VERTEX
  5
1A2
  8
P_Aisle_Sidewalk
 10
-5875.745502061201
 20
-33479.623682430116
 30
0.0
 70
0
  0
VERTEX
  5
1A3
  8
P_Aisle_Sidewalk
 10
-5873.319361324594
 20
-33481.460402408185
 30
0.0
 70
0
  0
VERTEX
  5
1A4
  8
P_Aisle_Sidewalk
 10
-5871.06497510613
 20
-33490.67523770605
 30
0.0
 70
0
  0
VERTEX
  5
1A5
  8
P_Aisle_Sidewalk
 10
-5868.523442503357
 20
-33501.56680108076
 30
0.0
 70
0
  0
VERTEX
  5
1A6
  8
P_Aisle_Sidewalk
 10
-5869.723442900341
 20
-33503.824037520724
 30
0.0
 70
0
  0
VERTEX
  5
1A7
  8
P_Aisle_Sidewalk
 10
-5874.766106976822
 20
-33512.731995812595
 30
0.0
 70
0
  0
VERTEX
  5
1A8
  8
P_Aisle_Sidewalk
 10
-5880.514848864973
 20
-33522.56838309518
 30
0.0
 70
0
  0
VERTEX
  5
1A9
  8
P_Aisle_Sidewalk
 10
-5883.874572807169
 20
-33521.56930131914
 30
0.0
 70
0
  0
VERTEX
  5
1AA
  8
P_Aisle_Sidewalk
 10
-5904.934291719736
 20
-33513.640889010356
 30
0.0
 70
0
  0
VERTEX
  5
1AB
  8
P_Aisle_Sidewalk
 10
-5906.477581451748
 20
-33513.09612324927
 30
0.0
 70
0
  0
VERTEX
  5
1AC
  8
P_Aisle_Sidewalk
 10
-5907.728934358596
 20
-33512.71014218922
 30
0.0
 70
0
  0
VERTEX
  5
1AD
  8
P_Aisle_Sidewalk
 10
-5915.039539806758
 20
-33509.96392320928
 30
0.0
 70
0
  0
VERTEX
  5
1AE
  8
P_Aisle_Sidewalk
 10
-5916.520538772966
 20
-33512.704292894974
 30
0.0
 70
0
  0
VERTEX
  5
1AF
  8
P_Aisle_Sidewalk
 10
-5906.479765026533
 20
-33516.38121864433
 30
0.0
 70
0
  0
VERTEX
  5
1B0
  8
P_Aisle_Sidewalk
 10
-5889.769139491253
 20
-33522.50183845513
 30
0.0
 70
0
  0
VERTEX
  5
1B1
  8
P_Aisle_Sidewalk
 10
-5886.79637231793
 20
-33523.64415335157
 30
0.0
 70
0
  0
VERTEX
  5
1B2
  8
P_Aisle_Sidewalk
 10
-5882.799799318466
 20
-33525.149639099305
 30
0.0
 70
0
  0
VERTEX
  5
1B3
  8
P_Aisle_Sidewalk
 10
-5881.3283885428045
 20
-33525.422483493036
 30
0.0
 70
0
  0
VERTEX
  5
1B4
  8
P_Aisle_Sidewalk
 10
-5880.34227102444
 20
-33525.42313610782
 30
0.0
 70
0
  0
VERTEX
  5
1B5
  8
P_Aisle_Sidewalk
 10
-5879.211753830315
 20
-33525.00852659634
 30
0.0
 70
0
  0
VERTEX
  5
1B6
  8
P_Aisle_Sidewalk
 10
-5878.088417616979
 20
-33523.98220387649
 30
0.0
 70
0
  0
VERTEX
  5
1B7
  8
P_Aisle_Sidewalk
 10
-5876.736841896907
 20
-33521.9365183988
 30
0.0
 70
0
  0
VERTEX
  5
1B8
  8
P_Aisle_Sidewalk
 10
-5871.420897714802
 20
-33512.734206777764
 30
0.0
 70
0
  0
VERTEX
  5
1B9
  8
P_Aisle_Sidewalk
 10
-5865.0874108349135
 20
-33501.871147080295
 30
0.0
 70
0
  0
VERTEX
  5
1BA
  8
P_Aisle_Sidewalk
 10
-5862.923082088806
 20
-33498.14191982216
 30
0.0
 70
0
  0
VERTEX
  5
1BB
  8
P_Aisle_Sidewalk
 10
-5860.660064057161
 20
-33494.29192781248
 30
0.0
 70
0
  0
VERTEX
  5
1BC
  8
P_Aisle_Sidewalk
 10
-5859.679827359429
 20
-33491.702262833234
 30
0.0
 70
0
  0
VERTEX
  5
1BD
  8
P_Aisle_Sidewalk
 10
-5859.769563417301
 20
-33489.74625470845
 30
0.0
 70
0
  0
VERTEX
  5
1BE
  8
P_Aisle_Sidewalk
 10
-5860.095027252307
 20
-33488.66611477993
 30
0.0
 70
0
  0
VERTEX
  5
1BF
  8
P_Aisle_Sidewalk
 10
-5861.959667343563
 20
-33486.55789814941
 30
0.0
 70
0
  0
VERTEX
  5
1C0
  8
P_Aisle_Sidewalk
 10
-5862.566187360469
 20
-33486.074174959256
 30
0.0
 70
0
  0
VERTEX
  5
1C1
  8
P_Aisle_Sidewalk
 10
-5871.307636833854
 20
-33479.082877799614
 30
0.0
 70
0
  0
VERTEX
  5
1C2
  8
P_Aisle_Sidewalk
 10
-5884.606692047146
 20
-33470.200582894235
 30
0.0
 70
0
  0
VERTEX
  5
1C3
  8
P_Aisle_Sidewalk
 10
-5906.439697561506
 20
-33456.10179769834
 30
0.0
 70
0
  0
SEQEND
  5
192
  8
P_Aisle_Sidewalk
  0
POLYLINE
  5
1C4
  8
P_TrafficSign
 66
1
 10
0.0
 20
0.0
 30
0.0
 70
1
  0
VERTEX
  5
1C6
  8
P_TrafficSign
 10
-5960.325567999697
 20
-33635.16462979056
 30
0.0
 70
0
  0
VERTEX
  5
1C7
  8
P_TrafficSign
 10
-5955.206797426241
 20
-33637.43367638403
 30
0.0
 70
0
  0
VERTEX
  5
1C8
  8
P_TrafficSign
 10
-5954.287571745784
 20
-33635.39523902106
 30
0.0
 70
0
  0
VERTEX
  5
1C9
  8
P_TrafficSign
 10
-5959.406341377695
 20
-33633.12619347135
 30
0.0
 70
0
  0
VERTEX
  5
1CA
  8
P_TrafficSign
 10
-5960.325567999697
 20
-33635.16462979056
 30
0.0
 70
0
  0
SEQEND
  5
1C5
  8
P_TrafficSign
  0
POLYLINE
  5
1CB
  8
P_TrafficSign
 66
1
 10
0.0
 20
0.0
 30
0.0
 70
1
  0
VERTEX
  5
1CD
  8
P_TrafficSign
 10
-5959.377128322798
 20
-33634.81031961699
 30
0.0
 70
0
  0
VERTEX
  5
1CE
  8
P_TrafficSign
 10
-5959.042854932002
 20
-33634.05533900977
 30
0.0
 70
0
  0
VERTEX
  5
1CF
  8
P_TrafficSign
 10
-5956.7526783988915
 20
-33635.06884886764
 30
0.0
 70
0
  0
VERTEX
  5
1D0
  8
P_TrafficSign
 10
-5956.5855418043
 20
-33634.691358500655
 30
0.0
 70
0
  0
VERTEX
  5
1D1
  8
P_TrafficSign
 10
-5955.4031478380975
 20
-33636.12704020317
 30
0.0
 70
0
  0
VERTEX
  5
1D2
  8
P_TrafficSign
 10
-5957.269264561151
 20
-33636.208861929284
 30
0.0
 70
0
  0
VERTEX
  5
1D3
  8
P_TrafficSign
 10
-5957.094542309373
 20
-33635.83137660975
 30
0.0
 70
0
  0
VERTEX
  5
1D4
  8
P_TrafficSign
 10
-5959.377128322798
 20
-33634.81031961699
 30
0.0
 70
0
  0
SEQEND
  5
1CC
  8
P_TrafficSign
  0
POLYLINE
  5
1D5
  8
P_TrafficSign
 66
1
 10
0.0
 20
0.0
 30
0.0
 70
1
  0
VERTEX
  5
1D7
  8
P_TrafficSign
 10
-5978.869059404287
 20
-33641.4732395776
 30
0.0
 70
0
  0
VERTEX
  5
1D8
  8
P_TrafficSign
 10
-5976.233533276559
 20
-33636.543522697735
 30
0.0
 70
0
  0
VERTEX
  5
1D9
  8
P_TrafficSign
 10
-5978.2126724227755
 20
-33635.49245665642
 30
0.0
 70
0
  0
VERTEX
  5
1DA
  8
P_TrafficSign
 10
-5980.848199341323
 20
-33640.42217237214
 30
0.0
 70
0
  0
VERTEX
  5
1DB
  8
P_TrafficSign
 10
-5978.869059404287
 20
-33641.4732395776
 30
0.0
 70
0
  0
SEQEND
  5
1D6
  8
P_TrafficSign
  0
POLYLINE
  5
1DC
  8
P_TrafficSign
 66
1
 10
0.0
 20
0.0
 30
0.0
 70
1
  0
VERTEX
  5
1DE
  8
P_TrafficSign
 10
-5979.149076881976
 20
-33640.50638835487
 30
0.0
 70
0
  0
VERTEX
  5
1DF
  8
P_TrafficSign
 10
-5979.884622619769
 20
-33640.120738729674
 30
0.0
 70
0
  0
VERTEX
  5
1E0
  8
P_TrafficSign
 10
-5978.714958981066
 20
-33637.923878725094
 30
0.0
 70
0
  0
VERTEX
  5
1E1
  8
P_TrafficSign
 10
-5979.078936411924
 20
-33637.72728052279
 30
0.0
 70
0
  0
VERTEX
  5
1E2
  8
P_TrafficSign
 10
-5977.561086905913
 20
-33636.648358493374
 30
0.0
 70
0
  0
VERTEX
  5
1E3
  8
P_TrafficSign
 10
-5977.6078502772725
 20
-33638.506131435046
 30
0.0
 70
0
  0
VERTEX
  5
1E4
  8
P_TrafficSign
 10
-5977.979413372431
 20
-33638.30952816051
 30
0.0
 70
0
  0
VERTEX
  5
1E5
  8
P_TrafficSign
 10
-5979.149076881976
 20
-33640.50638835487
 30
0.0
 70
0
  0
SEQEND
  5
1DD
  8
P_TrafficSign
  0
POLYLINE
  5
1E6
  8
P_TrafficSign
 66
1
 10
0.0
 20
0.0
 30
0.0
 70
1
  0
VERTEX
  5
1E8
  8
P_TrafficSign
 10
-6021.074872477429
 20
-33618.21465560501
 30
0.0
 70
0
  0
VERTEX
  5
1E9
  8
P_TrafficSign
 10
-6023.445003892939
 20
-33623.26536167007
 30
0.0
 70
0
  0
VERTEX
  5
1EA
  8
P_TrafficSign
 10
-6021.412701936741
 20
-33624.21074384976
 30
0.0
 70
0
  0
VERTEX
  5
1EB
  8
P_TrafficSign
 10
-6019.042571424027
 20
-33619.16003670978
 30
0.0
 70
0
  0
VERTEX
  5
1EC
  8
P_TrafficSign
 10
-6021.074872477429
 20
-33618.21465560501
 30
0.0
 70
0
  0
SEQEND
  5
1E7
  8
P_TrafficSign
  0
POLYLINE
  5
1ED
  8
P_TrafficSign
 66
1
 10
0.0
 20
0.0
 30
0.0
 70
1
  0
VERTEX
  5
1EF
  8
P_TrafficSign
 10
-6020.741745719962
 20
-33619.15888563553
 30
0.0
 70
0
  0
VERTEX
  5
1F0
  8
P_TrafficSign
 10
-6019.9834211049865
 20
-33619.50679300579
 30
0.0
 70
0
  0
VERTEX
  5
1F1
  8
P_TrafficSign
 10
-6021.0393494511645
 20
-33621.764136443424
 30
0.0
 70
0
  0
VERTEX
  5
1F2
  8
P_TrafficSign
 10
-6020.667772647716
 20
-33621.938085058806
 30
0.0
 70
0
  0
VERTEX
  5
1F3
  8
P_TrafficSign
 10
-6022.124991249928
 20
-33623.092559433426
 30
0.0
 70
0
  0
VERTEX
  5
1F4
  8
P_TrafficSign
 10
-6022.176831463257
 20
-33621.234723072936
 30
0.0
 70
0
  0
VERTEX
  5
1F5
  8
P_TrafficSign
 10
-6021.7976742223955
 20
-33621.41622889756
 30
0.0
 70
0
  0
VERTEX
  5
1F6
  8
P_TrafficSign
 10
-6020.741745719962
 20
-33619.15888563553
 30
0.0
 70
0
  0
SEQEND
  5
1EE
  8
P_TrafficSign
  0
POLYLINE
  5
1F7
  8
P_TrafficSign
 66
1
 10
0.0
 20
0.0
 30
0.0
 70
1
  0
VERTEX
  5
1F9
  8
P_TrafficSign
 10
-6006.401414942513
 20
-33613.919927255156
 30
0.0
 70
0
  0
VERTEX
  5
1FA
  8
P_TrafficSign
 10
-6001.328243115179
 20
-33616.27958867205
 30
0.0
 70
0
  0
VERTEX
  5
1FB
  8
P_TrafficSign
 10
-6000.378676843245
 20
-33614.256285418836
 30
0.0
 70
0
  0
VERTEX
  5
1FC
  8
P_TrafficSign
 10
-6005.45184776548
 20
-33611.896625076864
 30
0.0
 70
0
  0
VERTEX
  5
1FD
  8
P_TrafficSign
 10
-6006.401414942513
 20
-33613.919927255156
 30
0.0
 70
0
  0
SEQEND
  5
1F8
  8
P_TrafficSign
  0
POLYLINE
  5
1FE
  8
P_TrafficSign
 66
1
 10
0.0
 20
0.0
 30
0.0
 70
1
  0
VERTEX
  5
200
  8
P_TrafficSign
 10
-6005.452990997981
 20
-33613.58827892103
 30
0.0
 70
0
  0
VERTEX
  5
201
  8
P_TrafficSign
 10
-6005.1035432952895
 20
-33612.833312080285
 30
0.0
 70
0
  0
VERTEX
  5
202
  8
P_TrafficSign
 10
-6002.836159759035
 20
-33613.88457619352
 30
0.0
 70
0
  0
VERTEX
  5
203
  8
P_TrafficSign
 10
-6002.6614411082355
 20
-33613.5146447303
 30
0.0
 70
0
  0
VERTEX
  5
204
  8
P_TrafficSign
 10
-6001.501824385134
 20
-33614.96541788287
 30
0.0
 70
0
  0
VERTEX
  5
205
  8
P_TrafficSign
 10
-6003.367916702846
 20
-33615.01702161822
 30
0.0
 70
0
  0
VERTEX
  5
206
  8
P_TrafficSign
 10
-6003.185607307777
 20
-33614.63954321484
 30
0.0
 70
0
  0
VERTEX
  5
207
  8
P_TrafficSign
 10
-6005.452990997981
 20
-33613.58827892103
 30
0.0
 70
0
  0
SEQEND
  5
1FF
  8
P_TrafficSign
  0
POLYLINE
  5
208
  8
P_RailwayArea
 66
1
 10
0.0
 20
0.0
 30
0.0
 70
1
  0
VERTEX
  5
20A
  8
P_RailwayArea
 10
-5986.381651102539
 20
-33578.1066751984
 30
0.0
 70
0
  0
VERTEX
  5
20B
  8
P_RailwayArea
 10
-5977.568842472388
 20
-33614.34717847853
 30
0.0
 70
0
  0
VERTEX
  5
20C
  8
P_RailwayArea
 10
-5969.48490454812
 20
-33674.247969131146
 30
0.0
 70
0
  0
VERTEX
  5
20D
  8
P_RailwayArea
 10
-5967.512066787621
 20
-33707.289710585625
 30
0.0
 70
0
  0
VERTEX
  5
20E
  8
P_RailwayArea
 10
-5968.560335199988
 20
-33732.02975013607
 30
0.0
 70
0
  0
VERTEX
  5
20F
  8
P_RailwayArea
 10
-5966.5310335303175
 20
-33782.68339138201
 30
0.0
 70
0
  0
VERTEX
  5
210
  8
P_RailwayArea
 10
-5966.550217547485
 20
-33811.2570690511
 30
0.0
 70
0
  0
VERTEX
  5
211
  8
P_RailwayArea
 10
-5956.734239631183
 20
-33811.263653937094
 30
0.0
 70
0
  0
VERTEX
  5
212
  8
P_RailwayArea
 10
-5956.714661957898
 20
-33782.05559409796
 30
0.0
 70
0
  0
VERTEX
  5
213
  8
P_RailwayArea
 10
-5958.721687701171
 20
-33732.03635261519
 30
0.0
 70
0
  0
VERTEX
  5
214
  8
P_RailwayArea
 10
-5957.696304965819
 20
-33707.44733879746
 30
0.0
 70
0
  0
VERTEX
  5
215
  8
P_RailwayArea
 10
-5959.736295302183
 20
-33672.68367961437
 30
0.0
 70
0
  0
VERTEX
  5
216
  8
P_RailwayArea
 10
-5968.0393566173825
 20
-33611.40829202889
 30
0.0
 70
0
  0
VERTEX
  5
217
  8
P_RailwayArea
 10
-5976.118382382215
 20
-33578.11358331999
 30
0.0
 70
0
  0
VERTEX
  5
218
  8
P_RailwayArea
 10
-5979.590516315732
 20
-33563.78511442103
 30
0.0
 70
0
  0
VERTEX
  5
219
  8
P_RailwayArea
 10
-5985.498394508331
 20
-33539.37692013587
 30
0.0
 70
0
  0
VERTEX
  5
21A
  8
P_RailwayArea
 10
-5993.012807274359
 20
-33512.65303343403
 30
0.0
 70
0
  0
VERTEX
  5
21B
  8
P_RailwayArea
 10
-6003.351855500675
 20
-33512.64605445346
 30
0.0
 70
0
  0
VERTEX
  5
21C
  8
P_RailwayArea
 10
-6002.837362230903
 20
-33514.60235605598
 30
0.0
 70
0
  0
VERTEX
  5
21D
  8
P_RailwayArea
 10
-5994.974939510382
 20
-33542.655638451324
 30
0.0
 70
0
  0
VERTEX
  5
21E
  8
P_RailwayArea
 10
-5989.853768492428
 20
-33563.77820226814
 30
0.0
 70
0
  0
VERTEX
  5
21F
  8
P_RailwayArea
 10
-5986.381651102539
 20
-33578.1066751984
 30
0.0
 70
0
  0
SEQEND
  5
209
  8
P_RailwayArea
  0
POLYLINE
  5
220
  8
P_Building_Facility
 66
1
 10
0.0
 20
0.0
 30
0.0
 70
1
  0
VERTEX
  5
222
  8
P_Building_Facility
 10
-5898.809098316345
 20
-33599.50721654567
 30
0.0
 70
0
  0
VERTEX
  5
223
  8
P_Building_Facility
 10
-5902.712482166298
 20
-33606.12019494096
 30
0.0
 70
0
  0
VERTEX
  5
224
  8
P_Building_Facility
 10
-5893.734681836731
 20
-33611.457884221374
 30
0.0
 70
0
  0
VERTEX
  5
225
  8
P_Building_Facility
 10
-5889.846468505642
 20
-33604.8373358821
 30
0.0
 70
0
  0
VERTEX
  5
226
  8
P_Building_Facility
 10
-5898.809098316345
 20
-33599.50721654567
 30
0.0
 70
0
  0
SEQEND
  5
221
  8
P_Building_Facility
  0
POLYLINE
  5
227
  8
P_Building_Facility
 66
1
 10
0.0
 20
0.0
 30
0.0
 70
1
  0
VERTEX
  5
229
  8
P_Building_Facility
 10
-6036.9730742248885
 20
-33605.25213999433
 30
0.0
 70
0
  0
VERTEX
  5
22A
  8
P_Building_Facility
 10
-6046.605689688035
 20
-33625.95326266942
 30
0.0
 70
0
  0
VERTEX
  5
22B
  8
P_Building_Facility
 10
-6039.811132825153
 20
-33629.11463692028
 30
0.0
 70
0
  0
VERTEX
  5
22C
  8
P_Building_Facility
 10
-6039.05150964304
 20
-33627.55188033256
 30
0.0
 70
0
  0
VERTEX
  5
22D
  8
P_Building_Facility
 10
-6030.603819028367
 20
-33631.499784075204
 30
0.0
 70
0
  0
VERTEX
  5
22E
  8
P_Building_Facility
 10
-6022.642532254864
 20
-33614.437576969845
 30
0.0
 70
0
  0
VERTEX
  5
22F
  8
P_Building_Facility
 10
-6023.937570123474
 20
-33611.34036699353
 30
0.0
 70
0
  0
VERTEX
  5
230
  8
P_Building_Facility
 10
-6036.9730742248885
 20
-33605.25213999433
 30
0.0
 70
0
  0
SEQEND
  5
228
  8
P_Building_Facility
  0
POLYLINE
  5
231
  8
P_Building_Facility
 66
1
 10
0.0
 20
0.0
 30
0.0
 70
1
  0
VERTEX
  5
233
  8
P_Building_Facility
 10
-5918.216863835018
 20
-33633.74278020787
 30
0.0
 70
0
  0
VERTEX
  5
234
  8
P_Building_Facility
 10
-5920.700106208038
 20
-33637.864544690885
 30
0.0
 70
0
  0
VERTEX
  5
235
  8
P_Building_Facility
 10
-5909.92522589142
 20
-33644.30606641335
 30
0.0
 70
0
  0
VERTEX
  5
236
  8
P_Building_Facility
 10
-5907.449557286482
 20
-33640.16163477506
 30
0.0
 70
0
  0
VERTEX
  5
237
  8
P_Building_Facility
 10
-5918.216863835018
 20
-33633.74278020787
 30
0.0
 70
0
  0
SEQEND
  5
232
  8
P_Building_Facility
  0
POLYLINE
  5
238
  8
P_Building_Facility
 66
1
 10
0.0
 20
0.0
 30
0.0
 70
1
  0
VERTEX
  5
23A
  8
P_Building_Facility
 10
-5933.252357687154
 20
-33578.14230794341
 30
0.0
 70
0
  0
VERTEX
  5
23B
  8
P_Building_Facility
 10
-5931.288623988219
 20
-33579.533187042995
 30
0.0
 70
0
  0
VERTEX
  5
23C
  8
P_Building_Facility
 10
-5920.717133102435
 20
-33583.72404664499
 30
0.0
 70
0
  0
VERTEX
  5
23D
  8
P_Building_Facility
 10
-5918.134327774624
 20
-33578.152389246476
 30
0.0
 70
0
  0
VERTEX
  5
23E
  8
P_Building_Facility
 10
-5911.517770749635
 20
-33563.83066039436
 30
0.0
 70
0
  0
VERTEX
  5
23F
  8
P_Building_Facility
 10
-5906.504090499507
 20
-33552.97801795188
 30
0.0
 70
0
  0
VERTEX
  5
240
  8
P_Building_Facility
 10
-5898.053048699052
 20
-33534.715412697726
 30
0.0
 70
0
  0
VERTEX
  5
241
  8
P_Building_Facility
 10
-5906.489528357239
 20
-33531.06976335789
 30
0.0
 70
0
  0
VERTEX
  5
242
  8
P_Building_Facility
 10
-5922.270489567309
 20
-33524.28515384907
 30
0.0
 70
0
  0
VERTEX
  5
243
  8
P_Building_Facility
 10
-5922.642738682301
 20
-33525.12317277645
 30
0.0
 70
0
  0
VERTEX
  5
244
  8
P_Building_Facility
 10
-5927.208224501257
 20
-33534.99809199796
 30
0.0
 70
0
  0
VERTEX
  5
245
  8
P_Building_Facility
 10
-5928.491821182267
 20
-33537.45917628519
 30
0.0
 70
0
  0
VERTEX
  5
246
  8
P_Building_Facility
 10
-5929.152628968097
 20
-33538.75767363344
 30
0.0
 70
0
  0
VERTEX
  5
247
  8
P_Building_Facility
 10
-5936.627507495106
 20
-33554.793075378075
 30
0.0
 70
0
  0
VERTEX
  5
248
  8
P_Building_Facility
 10
-5937.979783272052
 20
-33557.85827649503
 30
0.0
 70
0
  0
VERTEX
  5
249
  8
P_Building_Facility
 10
-5938.352322937131
 20
-33559.126760810155
 30
0.0
 70
0
  0
VERTEX
  5
24A
  8
P_Building_Facility
 10
-5938.892204083233
 20
-33561.08236413932
 30
0.0
 70
0
  0
VERTEX
  5
24B
  8
P_Building_Facility
 10
-5939.090493376154
 20
-33562.67570077583
 30
0.0
 70
0
  0
VERTEX
  5
24C
  8
P_Building_Facility
 10
-5939.1215952178245
 20
-33563.812254139724
 30
0.0
 70
0
  0
VERTEX
  5
24D
  8
P_Building_Facility
 10
-5939.137109544342
 20
-33564.325778982755
 30
0.0
 70
0
  0
VERTEX
  5
24E
  8
P_Building_Facility
 10
-5939.040208404102
 20
-33566.88596825113
 30
0.0
 70
0
  0
VERTEX
  5
24F
  8
P_Building_Facility
 10
-5938.526762714679
 20
-33570.43574775849
 30
0.0
 70
0
  0
VERTEX
  5
250
  8
P_Building_Facility
 10
-5938.133060593242
 20
-33571.553706007
 30
0.0
 70
0
  0
VERTEX
  5
251
  8
P_Building_Facility
 10
-5937.428567399838
 20
-33572.99660785297
 30
0.0
 70
0
  0
VERTEX
  5
252
  8
P_Building_Facility
 10
-5936.367774580286
 20
-33574.77203578537
 30
0.0
 70
0
  0
VERTEX
  5
253
  8
P_Building_Facility
 10
-5933.669362021497
 20
-33577.83994949932
 30
0.0
 70
0
  0
VERTEX
  5
254
  8
P_Building_Facility
 10
-5933.252357687154
 20
-33578.14230794341
 30
0.0
 70
0
  0
SEQEND
  5
239
  8
P_Building_Facility
  0
POLYLINE
  5
255
  8
P_Building_Residential
 66
1
 10
0.0
 20
0.0
 30
0.0
 70
1
  0
VERTEX
  5
257
  8
P_Building_Residential
 10
-5962.096061032716
 20
-33639.70222429711
 30
0.0
 70
0
  0
VERTEX
  5
258
  8
P_Building_Residential
 10
-5973.1601157929
 20
-33634.695337141515
 30
0.0
 70
0
  0
VERTEX
  5
259
  8
P_Building_Residential
 10
-5977.414398593231
 20
-33644.117437348046
 30
0.0
 70
0
  0
VERTEX
  5
25A
  8
P_Building_Residential
 10
-5978.422960994747
 20
-33643.63342732085
 30
0.0
 70
0
  0
VERTEX
  5
25B
  8
P_Building_Residential
 10
-5982.798801657433
 20
-33653.3197748167
 30
0.0
 70
0
  0
VERTEX
  5
25C
  8
P_Building_Residential
 10
-5981.7674815051205
 20
-33653.80380118154
 30
0.0
 70
0
  0
VERTEX
  5
25D
  8
P_Building_Residential
 10
-5982.06374299384
 20
-33654.43042309236
 30
0.0
 70
0
  0
VERTEX
  5
25E
  8
P_Building_Residential
 10
-5973.866170104312
 20
-33658.144002123416
 30
0.0
 70
0
  0
VERTEX
  5
25F
  8
P_Building_Residential
 10
-5972.711412907561
 20
-33655.554419473214
 30
0.0
 70
0
  0
VERTEX
  5
260
  8
P_Building_Residential
 10
-5969.837346771093
 20
-33656.87796227383
 30
0.0
 70
0
  0
VERTEX
  5
261
  8
P_Building_Residential
 10
-5965.85655904991
 20
-33648.067378199354
 30
0.0
 70
0
  0
VERTEX
  5
262
  8
P_Building_Residential
 10
-5962.096061032716
 20
-33639.70222429711
 30
0.0
 70
0
  0
SEQEND
  5
256
  8
P_Building_Residential
  0
POLYLINE
  5
263
  8
P_Building_Residential
 66
1
 10
0.0
 20
0.0
 30
0.0
 70
1
  0
VERTEX
  5
265
  8
P_Building_Residential
 10
-6012.6241220267575
 20
-33617.638870895265
 30
0.0
 70
0
  0
VERTEX
  5
266
  8
P_Building_Residential
 10
-6019.088842456875
 20
-33631.477382883146
 30
0.0
 70
0
  0
VERTEX
  5
267
  8
P_Building_Residential
 10
-5986.966292812992
 20
-33646.48235305242
 30
0.0
 70
0
  0
VERTEX
  5
268
  8
P_Building_Residential
 10
-5980.501611583615
 20
-33632.6437946143
 30
0.0
 70
0
  0
VERTEX
  5
269
  8
P_Building_Residential
 10
-6012.6241220267575
 20
-33617.638870895265
 30
0.0
 70
0
  0
SEQEND
  5
264
  8
P_Building_Residential
  0
POLYLINE
  5
26A
  8
P_Building_Residential
 66
1
 10
0.0
 20
0.0
 30
0.0
 70
1
  0
VERTEX
  5
26C
  8
P_Building_Residential
 10
-5906.544175116398
 20
-33613.28452232068
 30
0.0
 70
0
  0
VERTEX
  5
26D
  8
P_Building_Residential
 10
-5918.01929592773
 20
-33633.2293725969
 30
0.0
 70
0
  0
VERTEX
  5
26E
  8
P_Building_Residential
 10
-5906.561799114096
 20
-33639.79972637961
 30
0.0
 70
0
  0
VERTEX
  5
26F
  8
P_Building_Residential
 10
-5905.807331358868
 20
-33640.25335096019
 30
0.0
 70
0
  0
VERTEX
  5
270
  8
P_Building_Residential
 10
-5906.562958651915
 20
-33641.54424981606
 30
0.0
 70
0
  0
VERTEX
  5
271
  8
P_Building_Residential
 10
-5906.9806646488505
 20
-33642.29162550476
 30
0.0
 70
0
  0
VERTEX
  5
272
  8
P_Building_Residential
 10
-5906.563616225214
 20
-33642.5335684531
 30
0.0
 70
0
  0
VERTEX
  5
273
  8
P_Building_Residential
 10
-5897.195141781958
 20
-33647.90175071242
 30
0.0
 70
0
  0
VERTEX
  5
274
  8
P_Building_Residential
 10
-5878.687733356742
 20
-33615.80271638633
 30
0.0
 70
0
  0
VERTEX
  5
275
  8
P_Building_Residential
 10
-5884.0866028491055
 20
-33612.665050500866
 30
0.0
 70
0
  0
VERTEX
  5
276
  8
P_Building_Residential
 10
-5882.142421308284
 20
-33609.237717025004
 30
0.0
 70
0
  0
VERTEX
  5
277
  8
P_Building_Residential
 10
-5888.693879631632
 20
-33605.47246966784
 30
0.0
 70
0
  0
VERTEX
  5
278
  8
P_Building_Residential
 10
-5892.749250869924
 20
-33612.508269723374
 30
0.0
 70
0
  0
VERTEX
  5
279
  8
P_Building_Residential
 10
-5902.788739368882
 20
-33606.72430620773
 30
0.0
 70
0
  0
VERTEX
  5
27A
  8
P_Building_Residential
 10
-5906.544175116398
 20
-33613.28452232068
 30
0.0
 70
0
  0
SEQEND
  5
26B
  8
P_Building_Residential
  0
POLYLINE
  5
27B
  8
P_Building_Residential
 66
1
 10
0.0
 20
0.0
 30
0.0
 70
1
  0
VERTEX
  5
27D
  8
P_Building_Residential
 10
-5920.700106208038
 20
-33637.864544690885
 30
0.0
 70
0
  0
VERTEX
  5
27E
  8
P_Building_Residential
 10
-5923.699772039939
 20
-33642.884660615106
 30
0.0
 70
0
  0
VERTEX
  5
27F
  8
P_Building_Residential
 10
-5912.947629597334
 20
-33649.303518266854
 30
0.0
 70
0
  0
VERTEX
  5
280
  8
P_Building_Residential
 10
-5909.92522589142
 20
-33644.30606641335
 30
0.0
 70
0
  0
VERTEX
  5
281
  8
P_Building_Residential
 10
-5920.700106208038
 20
-33637.864544690885
 30
0.0
 70
0
  0
SEQEND
  5
27C
  8
P_Building_Residential
  0
POLYLINE
  5
282
  8
P_Building_Residential
 66
1
 10
0.0
 20
0.0
 30
0.0
 70
1
  0
VERTEX
  5
284
  8
P_Building_Residential
 10
-5995.810507733345
 20
-33578.10031826468
 30
0.0
 70
0
  0
VERTEX
  5
285
  8
P_Building_Residential
 10
-5975.146440876164
 20
-33587.92429068513
 30
0.0
 70
0
  0
VERTEX
  5
286
  8
P_Building_Residential
 10
-5970.793316134858
 20
-33578.11716290805
 30
0.0
 70
0
  0
VERTEX
  5
287
  8
P_Building_Residential
 10
-5967.450576022143
 20
-33570.537203220556
 30
0.0
 70
0
  0
VERTEX
  5
288
  8
P_Building_Residential
 10
-5964.464925171499
 20
-33563.79527968322
 30
0.0
 70
0
  0
VERTEX
  5
289
  8
P_Building_Residential
 10
-5956.898261204686
 20
-33546.71399819647
 30
0.0
 70
0
  0
VERTEX
  5
28A
  8
P_Building_Residential
 10
-5956.753710748988
 20
-33546.07972931782
 30
0.0
 70
0
  0
VERTEX
  5
28B
  8
P_Building_Residential
 10
-5956.654673531889
 20
-33545.445429971085
 30
0.0
 70
0
  0
VERTEX
  5
28C
  8
P_Building_Residential
 10
-5956.601154605917
 20
-33544.818652129696
 30
0.0
 70
0
  0
VERTEX
  5
28D
  8
P_Building_Residential
 10
-5956.532419058435
 20
-33544.123916786564
 30
0.0
 70
0
  0
VERTEX
  5
28E
  8
P_Building_Residential
 10
-5956.531973583201
 20
-33543.45934360708
 30
0.0
 70
0
  0
VERTEX
  5
28F
  8
P_Building_Residential
 10
-5956.554310022514
 20
-33542.83251505613
 30
0.0
 70
0
  0
VERTEX
  5
290
  8
P_Building_Residential
 10
-5956.629719882484
 20
-33542.16789112176
 30
0.0
 70
0
  0
VERTEX
  5
291
  8
P_Building_Residential
 10
-5956.72790658071
 20
-33541.53345984745
 30
0.0
 70
0
  0
VERTEX
  5
292
  8
P_Building_Residential
 10
-5956.87159127436
 20
-33540.87634221236
 30
0.0
 70
0
  0
VERTEX
  5
293
  8
P_Building_Residential
 10
-5957.0456332614
 20
-33540.24186017042
 30
0.0
 70
0
  0
VERTEX
  5
294
  8
P_Building_Residential
 10
-5957.265208665342
 20
-33539.637555520865
 30
0.0
 70
0
  0
VERTEX
  5
295
  8
P_Building_Residential
 10
-5957.507545693855
 20
-33539.04078761176
 30
0.0
 70
0
  0
VERTEX
  5
296
  8
P_Building_Residential
 10
-5957.780219749466
 20
-33538.43644743109
 30
0.0
 70
0
  0
VERTEX
  5
297
  8
P_Building_Residential
 10
-5958.098406949291
 20
-33537.832076767474
 30
0.0
 70
0
  0
VERTEX
  5
298
  8
P_Building_Residential
 10
-5958.439391205682
 20
-33537.28810657197
 30
0.0
 70
0
  0
VERTEX
  5
299
  8
P_Building_Residential
 10
-5958.78040073867
 20
-33536.78189620613
 30
0.0
 70
0
  0
VERTEX
  5
29A
  8
P_Building_Residential
 10
-5959.197240199318
 20
-33536.23787517856
 30
0.0
 70
0
  0
VERTEX
  5
29B
  8
P_Building_Residential
 10
-5959.614120127672
 20
-33535.75426985351
 30
0.0
 70
0
  0
VERTEX
  5
29C
  8
P_Building_Residential
 10
-5960.546557558443
 20
-33534.88516856362
 30
0.0
 70
0
  0
VERTEX
  5
29D
  8
P_Building_Residential
 10
-5961.554926071747
 20
-33534.129295766325
 30
0.0
 70
0
  0
VERTEX
  5
29E
  8
P_Building_Residential
 10
-5989.119230835593
 20
-33520.63051620928
 30
0.0
 70
0
  0
VERTEX
  5
29F
  8
P_Building_Residential
 10
-5989.4073786146855
 20
-33520.47928296051
 30
0.0
 70
0
  0
VERTEX
  5
2A0
  8
P_Building_Residential
 10
-5994.836839657536
 20
-33517.85509482839
 30
0.0
 70
0
  0
VERTEX
  5
2A1
  8
P_Building_Residential
 10
-6002.617015130468
 20
-33514.058764749694
 30
0.0
 70
0
  0
VERTEX
  5
2A2
  8
P_Building_Residential
 10
-6007.21312542472
 20
-33524.228136443606
 30
0.0
 70
0
  0
VERTEX
  5
2A3
  8
P_Building_Residential
 10
-6009.568134666449
 20
-33529.399634754926
 30
0.0
 70
0
  0
VERTEX
  5
2A4
  8
P_Building_Residential
 10
-6011.634513424572
 20
-33534.004933439166
 30
0.0
 70
0
  0
VERTEX
  5
2A5
  8
P_Building_Residential
 10
-6013.8756068563425
 20
-33538.972610199795
 30
0.0
 70
0
  0
VERTEX
  5
2A6
  8
P_Building_Residential
 10
-6020.6596172092495
 20
-33553.920924385035
 30
0.0
 70
0
  0
VERTEX
  5
2A7
  8
P_Building_Residential
 10
-6020.857291636681
 20
-33554.58536472135
 30
0.0
 70
0
  0
VERTEX
  5
2A8
  8
P_Building_Residential
 10
-6021.03220945348
 20
-33555.24982051937
 30
0.0
 70
0
  0
VERTEX
  5
2A9
  8
P_Building_Residential
 10
-6021.123722119868
 20
-33555.96719675094
 30
0.0
 70
0
  0
VERTEX
  5
2AA
  8
P_Building_Residential
 10
-6021.222784522432
 20
-33556.631704050196
 30
0.0
 70
0
  0
VERTEX
  5
2AB
  8
P_Building_Residential
 10
-6021.253577024398
 20
-33557.296257653834
 30
0.0
 70
0
  0
VERTEX
  5
2AC
  8
P_Building_Residential
 10
-6021.254513473301
 20
-33558.67826999228
 30
0.0
 70
0
  0
VERTEX
  5
2AD
  8
P_Building_Residential
 10
-6021.2018854131975
 20
-33559.37308821395
 30
0.0
 70
0
  0
VERTEX
  5
2AE
  8
P_Building_Residential
 10
-6021.103738938905
 20
-33560.060385343815
 30
0.0
 70
0
  0
VERTEX
  5
2AF
  8
P_Building_Residential
 10
-6020.960063799309
 20
-33560.72505741517
 30
0.0
 70
0
  0
VERTEX
  5
2B0
  8
P_Building_Residential
 10
-6020.589267273381
 20
-33562.0469062542
 30
0.0
 70
0
  0
VERTEX
  5
2B1
  8
P_Building_Residential
 10
-6020.347000360968
 20
-33562.74185321056
 30
0.0
 70
0
  0
VERTEX
  5
2B2
  8
P_Building_Residential
 10
-6020.074350272361
 20
-33563.376404894945
 30
0.0
 70
0
  0
VERTEX
  5
2B3
  8
P_Building_Residential
 10
-6019.854627624569
 20
-33563.757929149964
 30
0.0
 70
0
  0
VERTEX
  5
2B4
  8
P_Building_Residential
 10
-6019.415197621531
 20
-33564.54363364475
 30
0.0
 70
0
  0
VERTEX
  5
2B5
  8
P_Building_Residential
 10
-6019.043894293321
 20
-33565.11783633535
 30
0.0
 70
0
  0
VERTEX
  5
2B6
  8
P_Building_Residential
 10
-6018.657414691636
 20
-33565.68449733575
 30
0.0
 70
0
  0
VERTEX
  5
2B7
  8
P_Building_Residential
 10
-6017.747864214325
 20
-33566.742391985776
 30
0.0
 70
0
  0
VERTEX
  5
2B8
  8
P_Building_Residential
 10
-6017.255130437975
 20
-33567.22605307775
 30
0.0
 70
0
  0
VERTEX
  5
2B9
  8
P_Building_Residential
 10
-6016.739614369193
 20
-33567.67196963253
 30
0.0
 70
0
  0
VERTEX
  5
2BA
  8
P_Building_Residential
 10
-6016.201346695459
 20
-33568.12545358138
 30
0.0
 70
0
  0
VERTEX
  5
2BB
  8
P_Building_Residential
 10
-6015.663038069556
 20
-33568.51852160607
 30
0.0
 70
0
  0
VERTEX
  5
2BC
  8
P_Building_Residential
 10
-6015.071630500612
 20
-33568.91162556053
 30
0.0
 70
0
  0
VERTEX
  5
2BD
  8
P_Building_Residential
 10
-6014.480181985579
 20
-33569.244313574556
 30
0.0
 70
0
  0
VERTEX
  5
2BE
  8
P_Building_Residential
 10
-6013.843194522896
 20
-33569.53927241466
 30
0.0
 70
0
  0
VERTEX
  5
2BF
  8
P_Building_Residential
 10
-5995.810507733345
 20
-33578.10031826468
 30
0.0
 70
0
  0
SEQEND
  5
283
  8
P_Building_Residential
  0
POLYLINE
  5
2C0
  8
P_Building_Residential
 66
1
 10
0.0
 20
0.0
 30
0.0
 70
1
  0
VERTEX
  5
2C2
  8
P_Building_Residential
 10
-5906.476803396178
 20
-33511.92557230641
 30
0.0
 70
0
  0
VERTEX
  5
2C3
  8
P_Building_Residential
 10
-5904.319248263487
 20
-33512.7124084051
 30
0.0
 70
0
  0
VERTEX
  5
2C4
  8
P_Building_Residential
 10
-5890.160592877623
 20
-33517.98551206811
 30
0.0
 70
0
  0
VERTEX
  5
2C5
  8
P_Building_Residential
 10
-5888.1924570942865
 20
-33512.72310919873
 30
0.0
 70
0
  0
VERTEX
  5
2C6
  8
P_Building_Residential
 10
-5887.820126680292
 20
-33511.75670699909
 30
0.0
 70
0
  0
VERTEX
  5
2C7
  8
P_Building_Residential
 10
-5885.787690818544
 20
-33512.483040117906
 30
0.0
 70
0
  0
VERTEX
  5
2C8
  8
P_Building_Residential
 10
-5874.3512464624255
 20
-33481.85242008593
 30
0.0
 70
0
  0
VERTEX
  5
2C9
  8
P_Building_Residential
 10
-5890.648417596354
 20
-33475.76233859325
 30
0.0
 70
0
  0
VERTEX
  5
2CA
  8
P_Building_Residential
 10
-5892.859742847765
 20
-33481.71933445261
 30
0.0
 70
0
  0
VERTEX
  5
2CB
  8
P_Building_Residential
 10
-5897.8952448269365
 20
-33479.82046219676
 30
0.0
 70
0
  0
VERTEX
  5
2CC
  8
P_Building_Residential
 10
-5904.887336508237
 20
-33477.225511280805
 30
0.0
 70
0
  0
VERTEX
  5
2CD
  8
P_Building_Residential
 10
-5905.645703647409
 20
-33476.9531383546
 30
0.0
 70
0
  0
VERTEX
  5
2CE
  8
P_Building_Residential
 10
-5906.455017800516
 20
-33479.15020796489
 30
0.0
 70
0
  0
VERTEX
  5
2CF
  8
P_Building_Residential
 10
-5914.912742663374
 20
-33501.80791312288
 30
0.0
 70
0
  0
VERTEX
  5
2D0
  8
P_Building_Residential
 10
-5912.561820781728
 20
-33502.68550229462
 30
0.0
 70
0
  0
VERTEX
  5
2D1
  8
P_Building_Residential
 10
-5914.849122992613
 20
-33508.79349890154
 30
0.0
 70
0
  0
VERTEX
  5
2D2
  8
P_Building_Residential
 10
-5906.476803396178
 20
-33511.92557230641
 30
0.0
 70
0
  0
SEQEND
  5
2C1
  8
P_Building_Residential
  0
POLYLINE
  5
2D3
  8
P_Building_Misc
 66
1
 10
0.0
 20
0.0
 30
0.0
 70
1
  0
VERTEX
  5
2D5
  8
P_Building_Misc
 10
-6019.371270999381
 20
-33578.084389869604
 30
0.0
 70
0
  0
VERTEX
  5
2D6
  8
P_Building_Misc
 10
-6016.671628170154
 20
-33579.29453829024
 30
0.0
 70
0
  0
VERTEX
  5
2D7
  8
P_Building_Misc
 10
-6016.1625772258
 20
-33578.08656280048
 30
0.0
 70
0
  0
VERTEX
  5
2D8
  8
P_Building_Misc
 10
-6016.063821727615
 20
-33577.87517364896
 30
0.0
 70
0
  0
VERTEX
  5
2D9
  8
P_Building_Misc
 10
-6015.5481465025505
 20
-33578.086978760955
 30
0.0
 70
0
  0
VERTEX
  5
2DA
  8
P_Building_Misc
 10
-6006.06899825296
 20
-33582.246991788714
 30
0.0
 70
0
  0
VERTEX
  5
2DB
  8
P_Building_Misc
 10
-6004.74705794909
 20
-33579.21198013184
 30
0.0
 70
0
  0
VERTEX
  5
2DC
  8
P_Building_Misc
 10
-6007.295052346905
 20
-33578.092561873185
 30
0.0
 70
0
  0
VERTEX
  5
2DD
  8
P_Building_Misc
 10
-6018.215048109811
 20
-33573.33496601511
 30
0.0
 70
0
  0
VERTEX
  5
2DE
  8
P_Building_Misc
 10
-6020.114431206157
 20
-33577.75159842329
 30
0.0
 70
0
  0
VERTEX
  5
2DF
  8
P_Building_Misc
 10
-6019.371270999381
 20
-33578.084389869604
 30
0.0
 70
0
  0
SEQEND
  5
2D4
  8
P_Building_Misc
  0
POLYLINE
  5
2E0
  8
P_Building_Misc
 66
1
 10
0.0
 20
0.0
 30
0.0
 70
1
  0
VERTEX
  5
2E2
  8
P_Building_Misc
 10
-5990.237320583195
 20
-33513.8556642404
 30
0.0
 70
0
  0
VERTEX
  5
2E3
  8
P_Building_Misc
 10
-5990.585444524834
 20
-33512.654670189084
 30
0.0
 70
0
  0
VERTEX
  5
2E4
  8
P_Building_Misc
 10
-5992.830930102098
 20
-33501.665082542044
 30
0.0
 70
0
  0
VERTEX
  5
2E5
  8
P_Building_Misc
 10
-5993.223267372732
 20
-33498.538316995015
 30
0.0
 70
0
  0
VERTEX
  5
2E6
  8
P_Building_Misc
 10
-5992.606163270488
 20
-33494.56641713646
 30
0.0
 70
0
  0
VERTEX
  5
2E7
  8
P_Building_Misc
 10
-5991.89091175133
 20
-33491.28181052518
 30
0.0
 70
0
  0
VERTEX
  5
2E8
  8
P_Building_Misc
 10
-5990.665065641823
 20
-33484.48590512746
 30
0.0
 70
0
  0
VERTEX
  5
2E9
  8
P_Building_Misc
 10
-5990.292338337741
 20
-33482.945564552654
 30
0.0
 70
0
  0
VERTEX
  5
2EA
  8
P_Building_Misc
 10
-5989.090039967933
 20
-33477.32019620316
 30
0.0
 70
0
  0
VERTEX
  5
2EB
  8
P_Building_Misc
 10
-5988.3976544288635
 20
-33474.19417039461
 30
0.0
 70
0
  0
VERTEX
  5
2EC
  8
P_Building_Misc
 10
-5988.19939385786
 20
-33472.65371392255
 30
0.0
 70
0
  0
VERTEX
  5
2ED
  8
P_Building_Misc
 10
-5991.657764241733
 20
-33471.75270523845
 30
0.0
 70
0
  0
VERTEX
  5
2EE
  8
P_Building_Misc
 10
-5993.136666749823
 20
-33471.3590085616
 30
0.0
 70
0
  0
VERTEX
  5
2EF
  8
P_Building_Misc
 10
-5994.433599292193
 20
-33471.086264971644
 30
0.0
 70
0
  0
VERTEX
  5
2F0
  8
P_Building_Misc
 10
-5994.7075882827
 20
-33472.43787216724
 30
0.0
 70
0
  0
VERTEX
  5
2F1
  8
P_Building_Misc
 10
-5995.422717052233
 20
-33475.54122578795
 30
0.0
 70
0
  0
VERTEX
  5
2F2
  8
P_Building_Misc
 10
-5994.315481953171
 20
-33475.904464660816
 30
0.0
 70
0
  0
VERTEX
  5
2F3
  8
P_Building_Misc
 10
-5995.669778437568
 20
-33481.952636337446
 30
0.0
 70
0
  0
VERTEX
  5
2F4
  8
P_Building_Misc
 10
-5996.034793750308
 20
-33483.304183707914
 30
0.0
 70
0
  0
VERTEX
  5
2F5
  8
P_Building_Misc
 10
-5998.1047486349
 20
-33493.23356767072
 30
0.0
 70
0
  0
VERTEX
  5
2F6
  8
P_Building_Misc
 10
-5999.040507090748
 20
-33497.29587463269
 30
0.0
 70
0
  0
VERTEX
  5
2F7
  8
P_Building_Misc
 10
-5997.716761288557
 20
-33502.802128539035
 30
0.0
 70
0
  0
VERTEX
  5
2F8
  8
P_Building_Misc
 10
-5995.318801890827
 20
-33512.65147790265
 30
0.0
 70
0
  0
VERTEX
  5
2F9
  8
P_Building_Misc
 10
-5995.0542618515965
 20
-33514.06387025009
 30
0.0
 70
0
  0
VERTEX
  5
2FA
  8
P_Building_Misc
 10
-5994.9335611221
 20
-33515.05325671397
 30
0.0
 70
0
  0
VERTEX
  5
2FB
  8
P_Building_Misc
 10
-5993.5075462482155
 20
-33515.144842021655
 30
0.0
 70
0
  0
VERTEX
  5
2FC
  8
P_Building_Misc
 10
-5989.70085683828
 20
-33516.98253214481
 30
0.0
 70
0
  0
VERTEX
  5
2FD
  8
P_Building_Misc
 10
-5989.97269824963
 20
-33515.14722552129
 30
0.0
 70
0
  0
VERTEX
  5
2FE
  8
P_Building_Misc
 10
-5990.237320583195
 20
-33513.8556642404
 30
0.0
 70
0
  0
SEQEND
  5
2E1
  8
P_Building_Misc
  0
POLYLINE
  5
2FF
  8
P_Building_Misc
 66
1
 10
0.0
 20
0.0
 30
0.0
 70
1
  0
VERTEX
  5
301
  8
P_Building_Misc
 10
-5931.066505887171
 20
-33530.87214627163
 30
0.0
 70
0
  0
VERTEX
  5
302
  8
P_Building_Misc
 10
-5931.970509136848
 20
-33532.85770865498
 30
0.0
 70
0
  0
VERTEX
  5
303
  8
P_Building_Misc
 10
-5927.208224501257
 20
-33534.99809199796
 30
0.0
 70
0
  0
VERTEX
  5
304
  8
P_Building_Misc
 10
-5922.642738682301
 20
-33525.12317277645
 30
0.0
 70
0
  0
VERTEX
  5
305
  8
P_Building_Misc
 10
-5927.549204390811
 20
-33523.073321500146
 30
0.0
 70
0
  0
VERTEX
  5
306
  8
P_Building_Misc
 10
-5931.066505887171
 20
-33530.87214627163
 30
0.0
 70
0
  0
SEQEND
  5
300
  8
P_Building_Misc
  0
POLYLINE
  5
307
  8
P_Building_Misc
 66
1
 10
0.0
 20
0.0
 30
0.0
 70
1
  0
VERTEX
  5
309
  8
P_Building_Misc
 10
-5988.085712697645
 20
-33517.8294390074
 30
0.0
 70
0
  0
VERTEX
  5
30A
  8
P_Building_Misc
 10
-5989.70085683828
 20
-33516.98253214481
 30
0.0
 70
0
  0
VERTEX
  5
30B
  8
P_Building_Misc
 10
-5993.5075462482155
 20
-33515.144842021655
 30
0.0
 70
0
  0
VERTEX
  5
30C
  8
P_Building_Misc
 10
-5994.836839657536
 20
-33517.85509482839
 30
0.0
 70
0
  0
VERTEX
  5
30D
  8
P_Building_Misc
 10
-5989.4073786146855
 20
-33520.47928296051
 30
0.0
 70
0
  0
VERTEX
  5
30E
  8
P_Building_Misc
 10
-5988.085712697645
 20
-33517.8294390074
 30
0.0
 70
0
  0
SEQEND
  5
308
  8
P_Building_Misc
  0
POLYLINE
  5
30F
  8
P_Building_Misc
 66
1
 10
0.0
 20
0.0
 30
0.0
 70
1
  0
VERTEX
  5
311
  8
P_Building_Misc
 10
-5946.798174055445
 20
-33563.80712015185
 30
0.0
 70
0
  0
VERTEX
  5
312
  8
P_Building_Misc
 10
-5945.008044362182
 20
-33563.89894181644
 30
0.0
 70
0
  0
VERTEX
  5
313
  8
P_Building_Misc
 10
-5939.137109544342
 20
-33564.325778982755
 30
0.0
 70
0
  0
VERTEX
  5
314
  8
P_Building_Misc
 10
-5939.1215952178245
 20
-33563.812254139724
 30
0.0
 70
0
  0
VERTEX
  5
315
  8
P_Building_Misc
 10
-5939.090493376154
 20
-33562.67570077583
 30
0.0
 70
0
  0
VERTEX
  5
316
  8
P_Building_Misc
 10
-5938.892204083233
 20
-33561.08236413932
 30
0.0
 70
0
  0
VERTEX
  5
317
  8
P_Building_Misc
 10
-5938.352322937131
 20
-33559.126760810155
 30
0.0
 70
0
  0
VERTEX
  5
318
  8
P_Building_Misc
 10
-5937.979783272052
 20
-33557.85827649503
 30
0.0
 70
0
  0
VERTEX
  5
319
  8
P_Building_Misc
 10
-5936.627507495106
 20
-33554.793075378075
 30
0.0
 70
0
  0
VERTEX
  5
31A
  8
P_Building_Misc
 10
-5929.152628968097
 20
-33538.75767363344
 30
0.0
 70
0
  0
VERTEX
  5
31B
  8
P_Building_Misc
 10
-5930.776310585085
 20
-33539.322987650965
 30
0.0
 70
0
  0
VERTEX
  5
31C
  8
P_Building_Misc
 10
-5932.688227495267
 20
-33539.86545307209
 30
0.0
 70
0
  0
VERTEX
  5
31D
  8
P_Building_Misc
 10
-5934.114489023375
 20
-33540.13637158793
 30
0.0
 70
0
  0
VERTEX
  5
31E
  8
P_Building_Misc
 10
-5936.71648794731
 20
-33540.37629658778
 30
0.0
 70
0
  0
VERTEX
  5
31F
  8
P_Building_Misc
 10
-5940.524505893152
 20
-33540.49458317742
 30
0.0
 70
0
  0
VERTEX
  5
320
  8
P_Building_Misc
 10
-5943.224874579858
 20
-33540.37194602557
 30
0.0
 70
0
  0
VERTEX
  5
321
  8
P_Building_Misc
 10
-5945.8493474457155
 20
-33540.18894309546
 30
0.0
 70
0
  0
VERTEX
  5
322
  8
P_Building_Misc
 10
-5948.526736936705
 20
-33539.734033120345
 30
0.0
 70
0
  0
VERTEX
  5
323
  8
P_Building_Misc
 10
-5950.9082145713
 20
-33539.16604101937
 30
0.0
 70
0
  0
VERTEX
  5
324
  8
P_Building_Misc
 10
-5953.380551308135
 20
-33538.348772540885
 30
0.0
 70
0
  0
VERTEX
  5
325
  8
P_Building_Misc
 10
-5956.429170180973
 20
-33537.20638264156
 30
0.0
 70
0
  0
VERTEX
  5
326
  8
P_Building_Misc
 10
-5958.294683814166
 20
-33536.4197275655
 30
0.0
 70
0
  0
VERTEX
  5
327
  8
P_Building_Misc
 10
-5959.614120127672
 20
-33535.75426985351
 30
0.0
 70
0
  0
VERTEX
  5
328
  8
P_Building_Misc
 10
-5959.197240199318
 20
-33536.23787517856
 30
0.0
 70
0
  0
VERTEX
  5
329
  8
P_Building_Misc
 10
-5958.78040073867
 20
-33536.78189620613
 30
0.0
 70
0
  0
VERTEX
  5
32A
  8
P_Building_Misc
 10
-5958.439391205682
 20
-33537.28810657197
 30
0.0
 70
0
  0
VERTEX
  5
32B
  8
P_Building_Misc
 10
-5958.098406949291
 20
-33537.832076767474
 30
0.0
 70
0
  0
VERTEX
  5
32C
  8
P_Building_Misc
 10
-5957.780219749466
 20
-33538.43644743109
 30
0.0
 70
0
  0
VERTEX
  5
32D
  8
P_Building_Misc
 10
-5957.507545693855
 20
-33539.04078761176
 30
0.0
 70
0
  0
VERTEX
  5
32E
  8
P_Building_Misc
 10
-5957.265208665342
 20
-33539.637555520865
 30
0.0
 70
0
  0
VERTEX
  5
32F
  8
P_Building_Misc
 10
-5957.0456332614
 20
-33540.24186017042
 30
0.0
 70
0
  0
VERTEX
  5
330
  8
P_Building_Misc
 10
-5956.87159127436
 20
-33540.87634221236
 30
0.0
 70
0
  0
VERTEX
  5
331
  8
P_Building_Misc
 10
-5956.72790658071
 20
-33541.53345984745
 30
0.0
 70
0
  0
VERTEX
  5
332
  8
P_Building_Misc
 10
-5956.629719882484
 20
-33542.16789112176
 30
0.0
 70
0
  0
VERTEX
  5
333
  8
P_Building_Misc
 10
-5956.554310022514
 20
-33542.83251505613
 30
0.0
 70
0
  0
VERTEX
  5
334
  8
P_Building_Misc
 10
-5956.531973583201
 20
-33543.45934360708
 30
0.0
 70
0
  0
VERTEX
  5
335
  8
P_Building_Misc
 10
-5956.532419058435
 20
-33544.123916786564
 30
0.0
 70
0
  0
VERTEX
  5
336
  8
P_Building_Misc
 10
-5956.601154605917
 20
-33544.818652129696
 30
0.0
 70
0
  0
VERTEX
  5
337
  8
P_Building_Misc
 10
-5956.654673531889
 20
-33545.445429971085
 30
0.0
 70
0
  0
VERTEX
  5
338
  8
P_Building_Misc
 10
-5956.753710748988
 20
-33546.07972931782
 30
0.0
 70
0
  0
VERTEX
  5
339
  8
P_Building_Misc
 10
-5956.898261204686
 20
-33546.71399819647
 30
0.0
 70
0
  0
VERTEX
  5
33A
  8
P_Building_Misc
 10
-5964.464925171499
 20
-33563.79527968322
 30
0.0
 70
0
  0
VERTEX
  5
33B
  8
P_Building_Misc
 10
-5967.450576022143
 20
-33570.537203220556
 30
0.0
 70
0
  0
VERTEX
  5
33C
  8
P_Building_Misc
 10
-5963.2010671742355
 20
-33568.161178155504
 30
0.0
 70
0
  0
VERTEX
  5
33D
  8
P_Building_Misc
 10
-5959.6346048666755
 20
-33566.29822895642
 30
0.0
 70
0
  0
VERTEX
  5
33E
  8
P_Building_Misc
 10
-5957.76795597029
 20
-33565.40079384848
 30
0.0
 70
0
  0
VERTEX
  5
33F
  8
P_Building_Misc
 10
-5954.778559601978
 20
-33564.375727071936
 30
0.0
 70
0
  0
VERTEX
  5
340
  8
P_Building_Misc
 10
-5950.848879168773
 20
-33563.83461637411
 30
0.0
 70
0
  0
VERTEX
  5
341
  8
P_Building_Misc
 10
-5949.90066491355
 20
-33563.80504336677
 30
0.0
 70
0
  0
VERTEX
  5
342
  8
P_Building_Misc
 10
-5947.99665339546
 20
-33563.74967811504
 30
0.0
 70
0
  0
VERTEX
  5
343
  8
P_Building_Misc
 10
-5946.798174055445
 20
-33563.80712015185
 30
0.0
 70
0
  0
SEQEND
  5
310
  8
P_Building_Misc
  0
POLYLINE
  5
344
  8
P_Building_Misc
 66
1
 10
0.0
 20
0.0
 30
0.0
 70
1
  0
VERTEX
  5
346
  8
P_Building_Misc
 10
-5918.134327774624
 20
-33578.152389246476
 30
0.0
 70
0
  0
VERTEX
  5
347
  8
P_Building_Misc
 10
-5920.717133102435
 20
-33583.72404664499
 30
0.0
 70
0
  0
VERTEX
  5
348
  8
P_Building_Misc
 10
-5917.664022778507
 20
-33578.15270245232
 30
0.0
 70
0
  0
VERTEX
  5
349
  8
P_Building_Misc
 10
-5909.818607055847
 20
-33563.8317905969
 30
0.0
 70
0
  0
VERTEX
  5
34A
  8
P_Building_Misc
 10
-5906.507288042188
 20
-33557.78862773245
 30
0.0
 70
0
  0
VERTEX
  5
34B
  8
P_Building_Misc
 10
-5894.7164536815
 20
-33536.28088329584
 30
0.0
 70
0
  0
VERTEX
  5
34C
  8
P_Building_Misc
 10
-5898.053048699052
 20
-33534.715412697726
 30
0.0
 70
0
  0
VERTEX
  5
34D
  8
P_Building_Misc
 10
-5906.504090499507
 20
-33552.97801795188
 30
0.0
 70
0
  0
VERTEX
  5
34E
  8
P_Building_Misc
 10
-5911.517770749635
 20
-33563.83066039436
 30
0.0
 70
0
  0
VERTEX
  5
34F
  8
P_Building_Misc
 10
-5918.134327774624
 20
-33578.152389246476
 30
0.0
 70
0
  0
SEQEND
  5
345
  8
P_Building_Misc
  0
POLYLINE
  5
350
  8
P_Building_Misc
 66
1
 10
0.0
 20
0.0
 30
0.0
 70
1
  0
VERTEX
  5
352
  8
P_Building_Misc
 10
-5931.970509136848
 20
-33532.85770865498
 30
0.0
 70
0
  0
VERTEX
  5
353
  8
P_Building_Misc
 10
-5932.122441474349
 20
-33533.18989356784
 30
0.0
 70
0
  0
VERTEX
  5
354
  8
P_Building_Misc
 10
-5933.079740530828
 20
-33535.46994737702
 30
0.0
 70
0
  0
VERTEX
  5
355
  8
P_Building_Misc
 10
-5928.491821182267
 20
-33537.45917628519
 30
0.0
 70
0
  0
VERTEX
  5
356
  8
P_Building_Misc
 10
-5927.208224501257
 20
-33534.99809199796
 30
0.0
 70
0
  0
VERTEX
  5
357
  8
P_Building_Misc
 10
-5931.970509136848
 20
-33532.85770865498
 30
0.0
 70
0
  0
SEQEND
  5
351
  8
P_Building_Misc
  0
POLYLINE
  5
358
  8
P_Building_Misc
 66
1
 10
0.0
 20
0.0
 30
0.0
 70
1
  0
VERTEX
  5
35A
  8
P_Building_Misc
 10
-5970.554541783893
 20
-33516.2779821062
 30
0.0
 70
0
  0
VERTEX
  5
35B
  8
P_Building_Misc
 10
-5971.983023706893
 20
-33519.856646361
 30
0.0
 70
0
  0
VERTEX
  5
35C
  8
P_Building_Misc
 10
-5969.283270406743
 20
-33520.88552577985
 30
0.0
 70
0
  0
VERTEX
  5
35D
  8
P_Building_Misc
 10
-5967.900317697022
 20
-33517.32948595122
 30
0.0
 70
0
  0
VERTEX
  5
35E
  8
P_Building_Misc
 10
-5970.554541783893
 20
-33516.2779821062
 30
0.0
 70
0
  0
SEQEND
  5
359
  8
P_Building_Misc
  0
POLYLINE
  5
35F
  8
P_Site
 66
1
 10
0.0
 20
0.0
 30
0.0
 70
1
  0
VERTEX
  5
361
  8
P_Site
 10
-6037.412812553018
 20
-33604.919552226085
 30
0.0
 70
0
  0
VERTEX
  5
362
  8
P_Site
 10
-6047.790005248867
 20
-33627.364688472546
 30
0.0
 70
0
  0
VERTEX
  5
363
  8
P_Site
 10
-6040.5938621848745
 20
-33631.19091706652
 30
0.0
 70
0
  0
VERTEX
  5
364
  8
P_Site
 10
-6038.953122571046
 20
-33627.884237051934
 30
0.0
 70
0
  0
VERTEX
  5
365
  8
P_Site
 10
-6030.262712567334
 20
-33631.862513742955
 30
0.0
 70
0
  0
VERTEX
  5
366
  8
P_Site
 10
-6022.270879019192
 20
-33614.4982450964
 30
0.0
 70
0
  0
VERTEX
  5
367
  8
P_Site
 10
-6024.232691492724
 20
-33610.28288301222
 30
0.0
 70
0
  0
VERTEX
  5
368
  8
P_Site
 10
-6037.412812553018
 20
-33604.919552226085
 30
0.0
 70
0
  0
SEQEND
  5
360
  8
P_Site
  0
POLYLINE
  5
369
  8
P_Site
 66
1
 10
0.0
 20
0.0
 30
0.0
 70
1
  0
VERTEX
  5
36B
  8
P_Site
 10
-6006.293757836108
 20
-33578.09323871472
 30
0.0
 70
0
  0
VERTEX
  5
36C
  8
P_Site
 10
-6010.145962975776
 20
-33576.225290238224
 30
0.0
 70
0
  0
VERTEX
  5
36D
  8
P_Site
 10
-6011.981081624632
 20
-33575.35556905698
 30
0.0
 70
0
  0
VERTEX
  5
36E
  8
P_Site
 10
-6014.930904281468
 20
-33573.93379733583
 30
0.0
 70
0
  0
VERTEX
  5
36F
  8
P_Site
 10
-6022.809855444125
 20
-33570.31860692516
 30
0.0
 70
0
  0
VERTEX
  5
370
  8
P_Site
 10
-6033.5101753582
 20
-33566.036920611776
 30
0.0
 70
0
  0
VERTEX
  5
371
  8
P_Site
 10
-6033.973509525257
 20
-33566.94284488537
 30
0.0
 70
0
  0
VERTEX
  5
372
  8
P_Site
 10
-6035.567291640953
 20
-33568.14252917589
 30
0.0
 70
0
  0
VERTEX
  5
373
  8
P_Site
 10
-6037.145559315888
 20
-33568.83624036102
 30
0.0
 70
0
  0
VERTEX
  5
374
  8
P_Site
 10
-6039.255406479122
 20
-33570.39806932742
 30
0.0
 70
0
  0
VERTEX
  5
375
  8
P_Site
 10
-6041.387687601759
 20
-33571.484107128315
 30
0.0
 70
0
  0
VERTEX
  5
376
  8
P_Site
 10
-6044.703105951012
 20
-33572.25970799316
 30
0.0
 70
0
  0
VERTEX
  5
377
  8
P_Site
 10
-6047.6047420347
 20
-33578.06522018225
 30
0.0
 70
0
  0
VERTEX
  5
378
  8
P_Site
 10
-6050.68101455091
 20
-33584.1122804561
 30
0.0
 70
0
  0
VERTEX
  5
379
  8
P_Site
 10
-6049.498956120077
 20
-33586.00863883552
 30
0.0
 70
0
  0
VERTEX
  5
37A
  8
P_Site
 10
-6048.149176753819
 20
-33586.67413427095
 30
0.0
 70
0
  0
VERTEX
  5
37B
  8
P_Site
 10
-6045.775668604162
 20
-33587.81610264472
 30
0.0
 70
0
  0
VERTEX
  5
37C
  8
P_Site
 10
-6039.466458354689
 20
-33590.743020697584
 30
0.0
 70
0
  0
VERTEX
  5
37D
  8
P_Site
 10
-6037.479730303124
 20
-33591.76389229297
 30
0.0
 70
0
  0
VERTEX
  5
37E
  8
P_Site
 10
-6035.462623582136
 20
-33592.73192009768
 30
0.0
 70
0
  0
VERTEX
  5
37F
  8
P_Site
 10
-6034.7801473133495
 20
-33593.06467216924
 30
0.0
 70
0
  0
VERTEX
  5
380
  8
P_Site
 10
-6032.24727708593
 20
-33594.11612178678
 30
0.0
 70
0
  0
VERTEX
  5
381
  8
P_Site
 10
-6030.60167812497
 20
-33594.81202401638
 30
0.0
 70
0
  0
VERTEX
  5
382
  8
P_Site
 10
-6028.690706600289
 20
-33595.68935440308
 30
0.0
 70
0
  0
VERTEX
  5
383
  8
P_Site
 10
-6025.649846819896
 20
-33597.103643841394
 30
0.0
 70
0
  0
VERTEX
  5
384
  8
P_Site
 10
-6019.295125218279
 20
-33600.053237486725
 30
0.0
 70
0
  0
VERTEX
  5
385
  8
P_Site
 10
-6012.515673027019
 20
-33603.101291214756
 30
0.0
 70
0
  0
VERTEX
  5
386
  8
P_Site
 10
-6010.483343876262
 20
-33604.00135666146
 30
0.0
 70
0
  0
VERTEX
  5
387
  8
P_Site
 10
-6006.729621990362
 20
-33605.69554792194
 30
0.0
 70
0
  0
VERTEX
  5
388
  8
P_Site
 10
-6003.756903152486
 20
-33606.92853677511
 30
0.0
 70
0
  0
VERTEX
  5
389
  8
P_Site
 10
-5997.280660201543
 20
-33609.67429524632
 30
0.0
 70
0
  0
VERTEX
  5
38A
  8
P_Site
 10
-5990.08396002142
 20
-33612.684856524844
 30
0.0
 70
0
  0
VERTEX
  5
38B
  8
P_Site
 10
-5973.029258663193
 20
-33620.58065855906
 30
0.0
 70
0
  0
VERTEX
  5
38C
  8
P_Site
 10
-5968.760021280899
 20
-33622.75096174505
 30
0.0
 70
0
  0
VERTEX
  5
38D
  8
P_Site
 10
-5958.135822609694
 20
-33627.576292877005
 30
0.0
 70
0
  0
VERTEX
  5
38E
  8
P_Site
 10
-5955.503151464851
 20
-33626.88326980802
 30
0.0
 70
0
  0
VERTEX
  5
38F
  8
P_Site
 10
-5953.340348101599
 20
-33625.532903722844
 30
0.0
 70
0
  0
VERTEX
  5
390
  8
P_Site
 10
-5952.239327582159
 20
-33623.879744621
 30
0.0
 70
0
  0
VERTEX
  5
391
  8
P_Site
 10
-5952.086305397625
 20
-33621.923869278486
 30
0.0
 70
0
  0
VERTEX
  5
392
  8
P_Site
 10
-5952.432921162232
 20
-33618.45725272315
 30
0.0
 70
0
  0
VERTEX
  5
393
  8
P_Site
 10
-5953.779975145674
 20
-33613.70612202645
 30
0.0
 70
0
  0
VERTEX
  5
394
  8
P_Site
 10
-5956.796075335424
 20
-33609.27861211939
 30
0.0
 70
0
  0
VERTEX
  5
395
  8
P_Site
 10
-5963.906108849349
 20
-33601.44994710771
 30
0.0
 70
0
  0
VERTEX
  5
396
  8
P_Site
 10
-5972.594716748157
 20
-33594.79078452101
 30
0.0
 70
0
  0
VERTEX
  5
397
  8
P_Site
 10
-5976.05216113863
 20
-33592.43978389359
 30
0.0
 70
0
  0
VERTEX
  5
398
  8
P_Site
 10
-5989.034611874859
 20
-33586.41209179823
 30
0.0
 70
0
  0
VERTEX
  5
399
  8
P_Site
 10
-5992.204326640313
 20
-33584.84668957291
 30
0.0
 70
0
  0
VERTEX
  5
39A
  8
P_Site
 10
-5997.482318745274
 20
-33582.52466338213
 30
0.0
 70
0
  0
VERTEX
  5
39B
  8
P_Site
 10
-6000.864304120309
 20
-33580.77786740492
 30
0.0
 70
0
  0
VERTEX
  5
39C
  8
P_Site
 10
-6002.608413126793
 20
-33579.930865184666
 30
0.0
 70
0
  0
VERTEX
  5
39D
  8
P_Site
 10
-6005.4292892959475
 20
-33578.51673500435
 30
0.0
 70
0
  0
VERTEX
  5
39E
  8
P_Site
 10
-6006.293757836108
 20
-33578.09323871472
 30
0.0
 70
0
  0
SEQEND
  5
36A
  8
P_Site
  0
POLYLINE
  5
39F
  8
P_Site
 66
1
 10
0.0
 20
0.0
 30
0.0
 70
1
  0
VERTEX
  5
3A1
  8
P_Site
 10
-5933.079740530828
 20
-33535.46994737702
 30
0.0
 70
0
  0
VERTEX
  5
3A2
  8
P_Site
 10
-5939.7529960897
 20
-33532.459807980944
 30
0.0
 70
0
  0
VERTEX
  5
3A3
  8
P_Site
 10
-5937.3044608242935
 20
-33534.840312596396
 30
0.0
 70
0
  0
VERTEX
  5
3A4
  8
P_Site
 10
-5933.520507983479
 20
-33536.677967444775
 30
0.0
 70
0
  0
VERTEX
  5
3A5
  8
P_Site
 10
-5929.152628968097
 20
-33538.75767363344
 30
0.0
 70
0
  0
VERTEX
  5
3A6
  8
P_Site
 10
-5928.491821182267
 20
-33537.45917628519
 30
0.0
 70
0
  0
VERTEX
  5
3A7
  8
P_Site
 10
-5927.208224501257
 20
-33534.99809199796
 30
0.0
 70
0
  0
VERTEX
  5
3A8
  8
P_Site
 10
-5931.970509136848
 20
-33532.85770865498
 30
0.0
 70
0
  0
VERTEX
  5
3A9
  8
P_Site
 10
-5932.122441474349
 20
-33533.18989356784
 30
0.0
 70
0
  0
VERTEX
  5
3AA
  8
P_Site
 10
-5933.079740530828
 20
-33535.46994737702
 30
0.0
 70
0
  0
SEQEND
  5
3A0
  8
P_Site
  0
POLYLINE
  5
3AB
  8
P_Site
 66
1
 10
0.0
 20
0.0
 30
0.0
 70
1
  0
VERTEX
  5
3AD
  8
P_Site
 10
-5927.208224501257
 20
-33534.99809199796
 30
0.0
 70
0
  0
VERTEX
  5
3AE
  8
P_Site
 10
-5923.896176867264
 20
-33527.86369755359
 30
0.0
 70
0
  0
VERTEX
  5
3AF
  8
P_Site
 10
-5946.889175692046
 20
-33518.43105298464
 30
0.0
 70
0
  0
VERTEX
  5
3B0
  8
P_Site
 10
-5949.515254964252
 20
-33520.65712064439
 30
0.0
 70
0
  0
VERTEX
  5
3B1
  8
P_Site
 10
-5932.559185282042
 20
-33528.37145130026
 30
0.0
 70
0
  0
VERTEX
  5
3B2
  8
P_Site
 10
-5930.618314820617
 20
-33529.90579452663
 30
0.0
 70
0
  0
VERTEX
  5
3B3
  8
P_Site
 10
-5931.970509136848
 20
-33532.85770865498
 30
0.0
 70
0
  0
VERTEX
  5
3B4
  8
P_Site
 10
-5932.122441474349
 20
-33533.18989356784
 30
0.0
 70
0
  0
VERTEX
  5
3B5
  8
P_Site
 10
-5933.079740530828
 20
-33535.46994737702
 30
0.0
 70
0
  0
VERTEX
  5
3B6
  8
P_Site
 10
-5928.491821182267
 20
-33537.45917628519
 30
0.0
 70
0
  0
VERTEX
  5
3B7
  8
P_Site
 10
-5927.208224501257
 20
-33534.99809199796
 30
0.0
 70
0
  0
SEQEND
  5
3AC
  8
P_Site
  0
POLYLINE
  5
3B8
  8
P_Site
 66
1
 10
0.0
 20
0.0
 30
0.0
 70
1
  0
VERTEX
  5
3BA
  8
P_Site
 10
-5963.239104447109
 20
-33523.10985812691
 30
0.0
 70
0
  0
VERTEX
  5
3BB
  8
P_Site
 10
-5962.159701067545
 20
-33519.74241159384
 30
0.0
 70
0
  0
VERTEX
  5
3BC
  8
P_Site
 10
-5964.442418862835
 20
-33518.96302876508
 30
0.0
 70
0
  0
VERTEX
  5
3BD
  8
P_Site
 10
-5967.900317697022
 20
-33517.32948595122
 30
0.0
 70
0
  0
VERTEX
  5
3BE
  8
P_Site
 10
-5970.554541783893
 20
-33516.2779821062
 30
0.0
 70
0
  0
VERTEX
  5
3BF
  8
P_Site
 10
-5971.983023706893
 20
-33519.856646361
 30
0.0
 70
0
  0
VERTEX
  5
3C0
  8
P_Site
 10
-5969.283270406743
 20
-33520.88552577985
 30
0.0
 70
0
  0
VERTEX
  5
3C1
  8
P_Site
 10
-5963.239104447109
 20
-33523.10985812691
 30
0.0
 70
0
  0
SEQEND
  5
3B9
  8
P_Site
  0
POLYLINE
  5
3C2
  8
P_Site
 66
1
 10
0.0
 20
0.0
 30
0.0
 70
1
  0
VERTEX
  5
3C4
  8
P_Site
 10
-5970.554541783893
 20
-33516.2779821062
 30
0.0
 70
0
  0
VERTEX
  5
3C5
  8
P_Site
 10
-5972.958844410186
 20
-33515.823249441775
 30
0.0
 70
0
  0
VERTEX
  5
3C6
  8
P_Site
 10
-5973.939802192897
 20
-33519.432421807905
 30
0.0
 70
0
  0
VERTEX
  5
3C7
  8
P_Site
 10
-5971.983023706893
 20
-33519.856646361
 30
0.0
 70
0
  0
VERTEX
  5
3C8
  8
P_Site
 10
-5969.283270406743
 20
-33520.88552577985
 30
0.0
 70
0
  0
VERTEX
  5
3C9
  8
P_Site
 10
-5967.900317697022
 20
-33517.32948595122
 30
0.0
 70
0
  0
VERTEX
  5
3CA
  8
P_Site
 10
-5970.554541783893
 20
-33516.2779821062
 30
0.0
 70
0
  0
SEQEND
  5
3C3
  8
P_Site
  0
POLYLINE
  5
3CB
  8
P_Site
 66
1
 10
0.0
 20
0.0
 30
0.0
 70
1
  0
VERTEX
  5
3CD
  8
P_Site
 10
-5927.208224501257
 20
-33534.99809199796
 30
0.0
 70
0
  0
VERTEX
  5
3CE
  8
P_Site
 10
-5923.896176867264
 20
-33527.86369755359
 30
0.0
 70
0
  0
VERTEX
  5
3CF
  8
P_Site
 10
-5922.642738682301
 20
-33525.12317277645
 30
0.0
 70
0
  0
VERTEX
  5
3D0
  8
P_Site
 10
-5922.270489567309
 20
-33524.28515384907
 30
0.0
 70
0
  0
VERTEX
  5
3D1
  8
P_Site
 10
-5921.062444711789
 20
-33521.36335283888
 30
0.0
 70
0
  0
VERTEX
  5
3D2
  8
P_Site
 10
-5925.999291051036
 20
-33519.37389863245
 30
0.0
 70
0
  0
VERTEX
  5
3D3
  8
P_Site
 10
-5927.549204390811
 20
-33523.073321500146
 30
0.0
 70
0
  0
VERTEX
  5
3D4
  8
P_Site
 10
-5931.970509136848
 20
-33532.85770865498
 30
0.0
 70
0
  0
VERTEX
  5
3D5
  8
P_Site
 10
-5932.122441474349
 20
-33533.18989356784
 30
0.0
 70
0
  0
VERTEX
  5
3D6
  8
P_Site
 10
-5933.079740530828
 20
-33535.46994737702
 30
0.0
 70
0
  0
VERTEX
  5
3D7
  8
P_Site
 10
-5928.491821182267
 20
-33537.45917628519
 30
0.0
 70
0
  0
VERTEX
  5
3D8
  8
P_Site
 10
-5927.208224501257
 20
-33534.99809199796
 30
0.0
 70
0
  0
SEQEND
  5
3CC
  8
P_Site
  0
POLYLINE
  5
3D9
  8
P_Site
 66
1
 10
0.0
 20
0.0
 30
0.0
 70
1
  0
VERTEX
  5
3DB
  8
P_Site
 10
-5972.617333972105
 20
-33515.581816663005
 30
0.0
 70
0
  0
VERTEX
  5
3DC
  8
P_Site
 10
-5974.331314213946
 20
-33515.06713204866
 30
0.0
 70
0
  0
VERTEX
  5
3DD
  8
P_Site
 10
-5975.539721080569
 20
-33518.502456158494
 30
0.0
 70
0
  0
VERTEX
  5
3DE
  8
P_Site
 10
-5971.983023706893
 20
-33519.856646361
 30
0.0
 70
0
  0
VERTEX
  5
3DF
  8
P_Site
 10
-5969.283270406743
 20
-33520.88552577985
 30
0.0
 70
0
  0
VERTEX
  5
3E0
  8
P_Site
 10
-5967.900317697022
 20
-33517.32948595122
 30
0.0
 70
0
  0
VERTEX
  5
3E1
  8
P_Site
 10
-5970.554541783893
 20
-33516.2779821062
 30
0.0
 70
0
  0
VERTEX
  5
3E2
  8
P_Site
 10
-5972.617333972105
 20
-33515.581816663005
 30
0.0
 70
0
  0
SEQEND
  5
3DA
  8
P_Site
  0
POLYLINE
  5
3E3
  8
P_Elevator
 66
1
 10
0.0
 20
0.0
 30
0.0
 70
1
  0
VERTEX
  5
3E5
  8
P_Elevator
 10
-5927.208224501257
 20
-33534.99809199796
 30
0.0
 70
0
  0
VERTEX
  5
3E6
  8
P_Elevator
 10
-5931.970509136848
 20
-33532.85770865498
 30
0.0
 70
0
  0
VERTEX
  5
3E7
  8
P_Elevator
 10
-5932.122441474349
 20
-33533.18989356784
 30
0.0
 70
0
  0
VERTEX
  5
3E8
  8
P_Elevator
 10
-5933.079740530828
 20
-33535.46994737702
 30
0.0
 70
0
  0
VERTEX
  5
3E9
  8
P_Elevator
 10
-5928.491821182267
 20
-33537.45917628519
 30
0.0
 70
0
  0
VERTEX
  5
3EA
  8
P_Elevator
 10
-5927.208224501257
 20
-33534.99809199796
 30
0.0
 70
0
  0
SEQEND
  5
3E4
  8
P_Elevator
  0
POLYLINE
  5
3EB
  8
P_Elevator
 66
1
 10
0.0
 20
0.0
 30
0.0
 70
1
  0
VERTEX
  5
3ED
  8
P_Elevator
 10
-5927.208224501257
 20
-33534.99809199796
 30
0.0
 70
0
  0
VERTEX
  5
3EE
  8
P_Elevator
 10
-5931.970509136848
 20
-33532.85770865498
 30
0.0
 70
0
  0
VERTEX
  5
3EF
  8
P_Elevator
 10
-5932.122441474349
 20
-33533.18989356784
 30
0.0
 70
0
  0
VERTEX
  5
3F0
  8
P_Elevator
 10
-5933.079740530828
 20
-33535.46994737702
 30
0.0
 70
0
  0
VERTEX
  5
3F1
  8
P_Elevator
 10
-5928.491821182267
 20
-33537.45917628519
 30
0.0
 70
0
  0
VERTEX
  5
3F2
  8
P_Elevator
 10
-5927.208224501257
 20
-33534.99809199796
 30
0.0
 70
0
  0
SEQEND
  5
3EC
  8
P_Elevator
  0
POLYLINE
  5
3F3
  8
P_Elevator
 66
1
 10
0.0
 20
0.0
 30
0.0
 70
1
  0
VERTEX
  5
3F5
  8
P_Elevator
 10
-5927.208224501257
 20
-33534.99809199796
 30
0.0
 70
0
  0
VERTEX
  5
3F6
  8
P_Elevator
 10
-5931.970509136848
 20
-33532.85770865498
 30
0.0
 70
0
  0
VERTEX
  5
3F7
  8
P_Elevator
 10
-5932.122441474349
 20
-33533.18989356784
 30
0.0
 70
0
  0
VERTEX
  5
3F8
  8
P_Elevator
 10
-5933.079740530828
 20
-33535.46994737702
 30
0.0
 70
0
  0
VERTEX
  5
3F9
  8
P_Elevator
 10
-5928.491821182267
 20
-33537.45917628519
 30
0.0
 70
0
  0
VERTEX
  5
3FA
  8
P_Elevator
 10
-5927.208224501257
 20
-33534.99809199796
 30
0.0
 70
0
  0
SEQEND
  5
3F4
  8
P_Elevator
  0
POLYLINE
  5
3FB
  8
P_Elevator
 66
1
 10
0.0
 20
0.0
 30
0.0
 70
1
  0
VERTEX
  5
3FD
  8
P_Elevator
 10
-5967.900317697022
 20
-33517.32948595122
 30
0.0
 70
0
  0
VERTEX
  5
3FE
  8
P_Elevator
 10
-5970.554541783893
 20
-33516.2779821062
 30
0.0
 70
0
  0
VERTEX
  5
3FF
  8
P_Elevator
 10
-5971.983023706893
 20
-33519.856646361
 30
0.0
 70
0
  0
VERTEX
  5
400
  8
P_Elevator
 10
-5969.283270406743
 20
-33520.88552577985
 30
0.0
 70
0
  0
VERTEX
  5
401
  8
P_Elevator
 10
-5967.900317697022
 20
-33517.32948595122
 30
0.0
 70
0
  0
SEQEND
  5
3FC
  8
P_Elevator
  0
POLYLINE
  5
402
  8
P_Elevator
 66
1
 10
0.0
 20
0.0
 30
0.0
 70
1
  0
VERTEX
  5
404
  8
P_Elevator
 10
-5967.900317697022
 20
-33517.32948595122
 30
0.0
 70
0
  0
VERTEX
  5
405
  8
P_Elevator
 10
-5970.554541783893
 20
-33516.2779821062
 30
0.0
 70
0
  0
VERTEX
  5
406
  8
P_Elevator
 10
-5971.983023706893
 20
-33519.856646361
 30
0.0
 70
0
  0
VERTEX
  5
407
  8
P_Elevator
 10
-5969.283270406743
 20
-33520.88552577985
 30
0.0
 70
0
  0
VERTEX
  5
408
  8
P_Elevator
 10
-5967.900317697022
 20
-33517.32948595122
 30
0.0
 70
0
  0
SEQEND
  5
403
  8
P_Elevator
  0
POLYLINE
  5
409
  8
P_Elevator
 66
1
 10
0.0
 20
0.0
 30
0.0
 70
1
  0
VERTEX
  5
40B
  8
P_Elevator
 10
-5967.900317697022
 20
-33517.32948595122
 30
0.0
 70
0
  0
VERTEX
  5
40C
  8
P_Elevator
 10
-5970.554541783893
 20
-33516.2779821062
 30
0.0
 70
0
  0
VERTEX
  5
40D
  8
P_Elevator
 10
-5971.983023706893
 20
-33519.856646361
 30
0.0
 70
0
  0
VERTEX
  5
40E
  8
P_Elevator
 10
-5969.283270406743
 20
-33520.88552577985
 30
0.0
 70
0
  0
VERTEX
  5
40F
  8
P_Elevator
 10
-5967.900317697022
 20
-33517.32948595122
 30
0.0
 70
0
  0
SEQEND
  5
40A
  8
P_Elevator
  0
POLYLINE
  5
410
  8
P_Water
 66
1
 10
0.0
 20
0.0
 30
0.0
 70
1
  0
VERTEX
  5
412
  8
P_Water
 10
-6011.634513424572
 20
-33534.004933439166
 30
0.0
 70
0
  0
VERTEX
  5
413
  8
P_Water
 10
-6014.781612513534
 20
-33532.68121033182
 30
0.0
 70
0
  0
VERTEX
  5
414
  8
P_Water
 10
-6014.874427958313
 20
-33535.324334642435
 30
0.0
 70
0
  0
VERTEX
  5
415
  8
P_Water
 10
-6014.458348441833
 20
-33536.986048579856
 30
0.0
 70
0
  0
VERTEX
  5
416
  8
P_Water
 10
-6013.8756068563425
 20
-33538.972610199795
 30
0.0
 70
0
  0
VERTEX
  5
417
  8
P_Water
 10
-6011.634513424572
 20
-33534.004933439166
 30
0.0
 70
0
  0
SEQEND
  5
411
  8
P_Water
  0
POLYLINE
  5
418
  8
P_Water
 66
1
 10
0.0
 20
0.0
 30
0.0
 70
1
  0
VERTEX
  5
41A
  8
P_Water
 10
-6012.442174082429
 20
-33528.10630565177
 30
0.0
 70
0
  0
VERTEX
  5
41B
  8
P_Water
 10
-6009.568134666449
 20
-33529.399634754926
 30
0.0
 70
0
  0
VERTEX
  5
41C
  8
P_Water
 10
-6007.21312542472
 20
-33524.228136443606
 30
0.0
 70
0
  0
VERTEX
  5
41D
  8
P_Water
 10
-6012.442174082429
 20
-33528.10630565177
 30
0.0
 70
0
  0
SEQEND
  5
419
  8
P_Water
  0
POLYLINE
  5
41E
  8
P_Water
 66
1
 10
0.0
 20
0.0
 30
0.0
 70
1
  0
VERTEX
  5
420
  8
P_Water
 10
-5989.119230835593
 20
-33520.63051620928
 30
0.0
 70
0
  0
VERTEX
  5
421
  8
P_Water
 10
-5961.554926071747
 20
-33534.129295766325
 30
0.0
 70
0
  0
VERTEX
  5
422
  8
P_Water
 10
-5965.041196350828
 20
-33529.550467641595
 30
0.0
 70
0
  0
VERTEX
  5
423
  8
P_Water
 10
-5967.6187780283835
 20
-33527.320909250935
 30
0.0
 70
0
  0
VERTEX
  5
424
  8
P_Water
 10
-5969.923563845335
 20
-33525.51444346603
 30
0.0
 70
0
  0
VERTEX
  5
425
  8
P_Water
 10
-5973.94255394787
 20
-33523.525578270746
 30
0.0
 70
0
  0
VERTEX
  5
426
  8
P_Water
 10
-5977.112452094588
 20
-33522.26227035678
 30
0.0
 70
0
  0
VERTEX
  5
427
  8
P_Water
 10
-5980.206631411474
 20
-33521.20291515491
 30
0.0
 70
0
  0
VERTEX
  5
428
  8
P_Water
 10
-5983.80937005378
 20
-33520.63409341808
 30
0.0
 70
0
  0
VERTEX
  5
429
  8
P_Water
 10
-5989.119230835593
 20
-33520.63051620928
 30
0.0
 70
0
  0
SEQEND
  5
41F
  8
P_Water
  0
POLYLINE
  5
42A
  8
P_Water
 66
1
 10
0.0
 20
0.0
 30
0.0
 70
1
  0
VERTEX
  5
42C
  8
P_Water
 10
-5664.137035023337
 20
-33604.530948276646
 30
0.0
 70
0
  0
VERTEX
  5
42D
  8
P_Water
 10
-5657.979418745477
 20
-33607.48771204841
 30
0.0
 70
0
  0
VERTEX
  5
42E
  8
P_Water
 10
-5657.964834780368
 20
-33584.58246070875
 30
0.0
 70
0
  0
VERTEX
  5
42F
  8
P_Water
 10
-5657.9610793915235
 20
-33578.68434908512
 30
0.0
 70
0
  0
VERTEX
  5
430
  8
P_Water
 10
-5658.378054622889
 20
-33578.32158758687
 30
0.0
 70
0
  0
VERTEX
  5
431
  8
P_Water
 10
-5664.245964687573
 20
-33573.11452285901
 30
0.0
 70
0
  0
VERTEX
  5
432
  8
P_Water
 10
-5666.105192495734
 20
-33574.314104908284
 30
0.0
 70
0
  0
VERTEX
  5
433
  8
P_Water
 10
-5679.858801342231
 20
-33563.98175136433
 30
0.0
 70
0
  0
VERTEX
  5
434
  8
P_Water
 10
-5694.082456887786
 20
-33553.29792015181
 30
0.0
 70
0
  0
VERTEX
  5
435
  8
P_Water
 10
-5747.549543897207
 20
-33512.815190972535
 30
0.0
 70
0
  0
VERTEX
  5
436
  8
P_Water
 10
-5805.898884927328
 20
-33468.80239133135
 30
0.0
 70
0
  0
VERTEX
  5
437
  8
P_Water
 10
-5805.479167720338
 20
-33464.95119337627
 30
0.0
 70
0
  0
VERTEX
  5
438
  8
P_Water
 10
-5812.570023907189
 20
-33462.567708190276
 30
0.0
 70
0
  0
VERTEX
  5
439
  8
P_Water
 10
-5813.009847526464
 20
-33462.36351910359
 30
0.0
 70
0
  0
VERTEX
  5
43A
  8
P_Water
 10
-5818.923943946877
 20
-33458.44021170738
 30
0.0
 70
0
  0
VERTEX
  5
43B
  8
P_Water
 10
-5820.940771560163
 20
-33457.056893316534
 30
0.0
 70
0
  0
VERTEX
  5
43C
  8
P_Water
 10
-5836.468444449709
 20
-33445.85480202285
 30
0.0
 70
0
  0
VERTEX
  5
43D
  8
P_Water
 10
-5839.660733335183
 20
-33444.04780347028
 30
0.0
 70
0
  0
VERTEX
  5
43E
  8
P_Water
 10
-5845.234096598352
 20
-33441.09135161489
 30
0.0
 70
0
  0
VERTEX
  5
43F
  8
P_Water
 10
-5866.850095136263
 20
-33425.76189701003
 30
0.0
 70
0
  0
VERTEX
  5
440
  8
P_Water
 10
-5883.242668969352
 20
-33414.97454413387
 30
0.0
 70
0
  0
VERTEX
  5
441
  8
P_Water
 10
-5906.402104586268
 20
-33399.5458415404
 30
0.0
 70
0
  0
VERTEX
  5
442
  8
P_Water
 10
-5914.037231739934
 20
-33394.45836968117
 30
0.0
 70
0
  0
VERTEX
  5
443
  8
P_Water
 10
-5914.621107052852
 20
-33394.1559072397
 30
0.0
 70
0
  0
VERTEX
  5
444
  8
P_Water
 10
-5918.131747363184
 20
-33392.04660517157
 30
0.0
 70
0
  0
VERTEX
  5
445
  8
P_Water
 10
-5940.340509613587
 20
-33378.732999186876
 30
0.0
 70
0
  0
VERTEX
  5
446
  8
P_Water
 10
-5944.730659273192
 20
-33376.0491630811
 30
0.0
 70
0
  0
VERTEX
  5
447
  8
P_Water
 10
-5962.230979076182
 20
-33365.955750185
 30
0.0
 70
0
  0
VERTEX
  5
448
  8
P_Water
 10
-5986.844229074827
 20
-33352.72352254418
 30
0.0
 70
0
  0
VERTEX
  5
449
  8
P_Water
 10
-6011.337204941839
 20
-33341.2131378585
 30
0.0
 70
0
  0
VERTEX
  5
44A
  8
P_Water
 10
-6041.321399197744
 20
-33328.943789351026
 30
0.0
 70
0
  0
VERTEX
  5
44B
  8
P_Water
 10
-6065.012388820656
 20
-33320.6508913735
 30
0.0
 70
0
  0
VERTEX
  5
44C
  8
P_Water
 10
-6083.45694852581
 20
-33316.25824894895
 30
0.0
 70
0
  0
VERTEX
  5
44D
  8
P_Water
 10
-6127.2850491596255
 20
-33316.228133820456
 30
0.0
 70
0
  0
VERTEX
  5
44E
  8
P_Water
 10
-6148.599857587325
 20
-33316.21340987241
 30
0.0
 70
0
  0
VERTEX
  5
44F
  8
P_Water
 10
-6150.958898665284
 20
-33316.21177713945
 30
0.0
 70
0
  0
VERTEX
  5
450
  8
P_Water
 10
-6148.645923564284
 20
-33317.01386672271
 30
0.0
 70
0
  0
VERTEX
  5
451
  8
P_Water
 10
-6127.289397500209
 20
-33322.53386939306
 30
0.0
 70
0
  0
VERTEX
  5
452
  8
P_Water
 10
-6125.893943660515
 20
-33322.89731727187
 30
0.0
 70
0
  0
VERTEX
  5
453
  8
P_Water
 10
-6063.252042781732
 20
-33342.084080376044
 30
0.0
 70
0
  0
VERTEX
  5
454
  8
P_Water
 10
-6043.814399108369
 20
-33347.45155181987
 30
0.0
 70
0
  0
VERTEX
  5
455
  8
P_Water
 10
-6021.831107492808
 20
-33357.33669337342
 30
0.0
 70
0
  0
VERTEX
  5
456
  8
P_Water
 10
-6001.235770001707
 20
-33367.03961026321
 30
0.0
 70
0
  0
VERTEX
  5
457
  8
P_Water
 10
-5981.240507962889
 20
-33378.04100086859
 30
0.0
 70
0
  0
VERTEX
  5
458
  8
P_Water
 10
-5953.162865459265
 20
-33394.58327966269
 30
0.0
 70
0
  0
VERTEX
  5
459
  8
P_Water
 10
-5932.850538318035
 20
-33408.046712302705
 30
0.0
 70
0
  0
VERTEX
  5
45A
  8
P_Water
 10
-5915.912967466493
 20
-33420.45816275509
 30
0.0
 70
0
  0
VERTEX
  5
45B
  8
P_Water
 10
-5906.420210885527
 20
-33426.78539292591
 30
0.0
 70
0
  0
VERTEX
  5
45C
  8
P_Water
 10
-5854.744282480059
 20
-33461.12781476998
 30
0.0
 70
0
  0
VERTEX
  5
45D
  8
P_Water
 10
-5849.005018723027
 20
-33465.587217401924
 30
0.0
 70
0
  0
VERTEX
  5
45E
  8
P_Water
 10
-5845.713934027164
 20
-33467.122419990126
 30
0.0
 70
0
  0
VERTEX
  5
45F
  8
P_Water
 10
-5830.383522418562
 20
-33478.422599425336
 30
0.0
 70
0
  0
VERTEX
  5
460
  8
P_Water
 10
-5828.563973352077
 20
-33479.89641685706
 30
0.0
 70
0
  0
VERTEX
  5
461
  8
P_Water
 10
-5822.286387123147
 20
-33484.77152024747
 30
0.0
 70
0
  0
VERTEX
  5
462
  8
P_Water
 10
-5785.818434168912
 20
-33512.79035599544
 30
0.0
 70
0
  0
VERTEX
  5
463
  8
P_Water
 10
-5717.945858355436
 20
-33563.95732532887
 30
0.0
 70
0
  0
VERTEX
  5
464
  8
P_Water
 10
-5698.930481383784
 20
-33578.295672982254
 30
0.0
 70
0
  0
VERTEX
  5
465
  8
P_Water
 10
-5664.137035023337
 20
-33604.530948276646
 30
0.0
 70
0
  0
SEQEND
  5
42B
  8
P_Water
  0
POLYLINE
  5
466
  8
P_Water
 66
1
 10
0.0
 20
0.0
 30
0.0
 70
1
  0
VERTEX
  5
468
  8
P_Water
 10
-5947.050499402309
 20
-33578.13308434377
 30
0.0
 70
0
  0
VERTEX
  5
469
  8
P_Water
 10
-5948.810903544085
 20
-33567.627079810314
 30
0.0
 70
0
  0
VERTEX
  5
46A
  8
P_Water
 10
-5950.828620840399
 20
-33567.56531290313
 30
0.0
 70
0
  0
VERTEX
  5
46B
  8
P_Water
 10
-5951.7383782309425
 20
-33578.12994577709
 30
0.0
 70
0
  0
VERTEX
  5
46C
  8
P_Water
 10
-5951.814942021013
 20
-33579.18717459607
 30
0.0
 70
0
  0
VERTEX
  5
46D
  8
P_Water
 10
-5946.786151882031
 20
-33579.847565475015
 30
0.0
 70
0
  0
VERTEX
  5
46E
  8
P_Water
 10
-5947.050499402309
 20
-33578.13308434377
 30
0.0
 70
0
  0
SEQEND
  5
467
  8
P_Water
  0
POLYLINE
  5
46F
  8
L_Road_Prefectural
 66
1
 10
0.0
 20
0.0
 30
0.0
 70
0
  0
VERTEX
  5
471
  8
L_Road_Prefectural
 10
-5903.579490378088
 20
-33563.835937771364
 30
0.0
 70
0
  0
VERTEX
  5
472
  8
L_Road_Prefectural
 10
-5893.494084235914
 20
-33546.061493958354
 30
0.0
 70
0
  0
SEQEND
  5
470
  8
L_Road_Prefectural
  0
POLYLINE
  5
473
  8
L_Road_Prefectural
 66
1
 10
0.0
 20
0.0
 30
0.0
 70
0
  0
VERTEX
  5
475
  8
L_Road_Prefectural
 10
-5874.840747964757
 20
-33556.79010194388
 30
0.0
 70
0
  0
VERTEX
  5
476
  8
L_Road_Prefectural
 10
-5878.979544641279
 20
-33563.852246801864
 30
0.0
 70
0
  0
SEQEND
  5
474
  8
L_Road_Prefectural
  0
POLYLINE
  5
477
  8
L_Road_Prefectural
 66
1
 10
0.0
 20
0.0
 30
0.0
 70
0
  0
VERTEX
  5
479
  8
L_Road_Prefectural
 10
-5911.701769138517
 20
-33578.15667093314
 30
0.0
 70
0
  0
VERTEX
  5
47A
  8
L_Road_Prefectural
 10
-5906.514749805293
 20
-33569.0146525843
 30
0.0
 70
0
  0
SEQEND
  5
478
  8
L_Road_Prefectural
  0
POLYLINE
  5
47B
  8
L_Road_Prefectural
 66
1
 10
0.0
 20
0.0
 30
0.0
 70
0
  0
VERTEX
  5
47D
  8
L_Road_Prefectural
 10
-5915.780008482977
 20
-33585.35101597351
 30
0.0
 70
0
  0
VERTEX
  5
47E
  8
L_Road_Prefectural
 10
-5911.701769138517
 20
-33578.15667093314
 30
0.0
 70
0
  0
SEQEND
  5
47C
  8
L_Road_Prefectural
  0
POLYLINE
  5
47F
  8
L_Road_Prefectural
 66
1
 10
0.0
 20
0.0
 30
0.0
 70
0
  0
VERTEX
  5
481
  8
L_Road_Prefectural
 10
-5941.880872427173
 20
-33629.090033089786
 30
0.0
 70
0
  0
VERTEX
  5
482
  8
L_Road_Prefectural
 10
-5917.549307172319
 20
-33588.1440806989
 30
0.0
 70
0
  0
SEQEND
  5
480
  8
L_Road_Prefectural
  0
POLYLINE
  5
483
  8
L_Road_Prefectural
 66
1
 10
0.0
 20
0.0
 30
0.0
 70
0
  0
VERTEX
  5
485
  8
L_Road_Prefectural
 10
-5906.543156125534
 20
-33611.7514610814
 30
0.0
 70
0
  0
VERTEX
  5
486
  8
L_Road_Prefectural
 10
-5923.227621246467
 20
-33640.12092372838
 30
0.0
 70
0
  0
SEQEND
  5
484
  8
L_Road_Prefectural
  0
POLYLINE
  5
487
  8
L_Road_Prefectural
 66
1
 10
0.0
 20
0.0
 30
0.0
 70
0
  0
VERTEX
  5
489
  8
L_Road_Prefectural
 10
-5917.549307172319
 20
-33588.1440806989
 30
0.0
 70
0
  0
VERTEX
  5
48A
  8
L_Road_Prefectural
 10
-5915.780008482977
 20
-33585.35101597351
 30
0.0
 70
0
  0
SEQEND
  5
488
  8
L_Road_Prefectural
  0
POLYLINE
  5
48B
  8
L_Road_Prefectural
 66
1
 10
0.0
 20
0.0
 30
0.0
 70
0
  0
VERTEX
  5
48D
  8
L_Road_Prefectural
 10
-5951.8492666694165
 20
-33630.43517796213
 30
0.0
 70
0
  0
VERTEX
  5
48E
  8
L_Road_Prefectural
 10
-5944.189938319338
 20
-33633.63481997953
 30
0.0
 70
0
  0
VERTEX
  5
48F
  8
L_Road_Prefectural
 10
-5941.880872427173
 20
-33629.090033089786
 30
0.0
 70
0
  0
SEQEND
  5
48C
  8
L_Road_Prefectural
  0
POLYLINE
  5
490
  8
L_Road_Prefectural
 66
1
 10
0.0
 20
0.0
 30
0.0
 70
0
  0
VERTEX
  5
492
  8
L_Road_Prefectural
 10
-5923.227621246467
 20
-33640.12092372838
 30
0.0
 70
0
  0
VERTEX
  5
493
  8
L_Road_Prefectural
 10
-5927.609842073245
 20
-33648.09297259416
 30
0.0
 70
0
  0
VERTEX
  5
494
  8
L_Road_Prefectural
 10
-5926.798437168405
 20
-33648.47866882256
 30
0.0
 70
0
  0
VERTEX
  5
495
  8
L_Road_Prefectural
 10
-5924.265764976129
 20
-33649.869936674695
 30
0.0
 70
0
  0
SEQEND
  5
491
  8
L_Road_Prefectural
  0
POLYLINE
  5
496
  8
L_Road_Prefectural
 66
1
 10
0.0
 20
0.0
 30
0.0
 70
0
  0
VERTEX
  5
498
  8
L_Road_Prefectural
 10
-5927.835326350677
 20
-33656.339674570314
 30
0.0
 70
0
  0
VERTEX
  5
499
  8
L_Road_Prefectural
 10
-5929.799279155752
 20
-33655.25086681932
 30
0.0
 70
0
  0
VERTEX
  5
49A
  8
L_Road_Prefectural
 10
-5930.633396079355
 20
-33654.79718628487
 30
0.0
 70
0
  0
VERTEX
  5
49B
  8
L_Road_Prefectural
 10
-5931.393183962364
 20
-33656.631831122104
 30
0.0
 70
0
  0
SEQEND
  5
497
  8
L_Road_Prefectural
  0
POLYLINE
  5
49C
  8
L_Road_Prefectural
 66
1
 10
0.0
 20
0.0
 30
0.0
 70
0
  0
VERTEX
  5
49E
  8
L_Road_Prefectural
 10
-5951.937722740235
 20
-33649.247280878175
 30
0.0
 70
0
  0
VERTEX
  5
49F
  8
L_Road_Prefectural
 10
-5950.561579114867
 20
-33644.5508222859
 30
0.0
 70
0
  0
VERTEX
  5
4A0
  8
L_Road_Prefectural
 10
-5957.0832996433055
 20
-33641.69177599262
 30
0.0
 70
0
  0
SEQEND
  5
49D
  8
L_Road_Prefectural
  0
POLYLINE
  5
4A1
  8
L_Road_Prefectural
 66
1
 10
0.0
 20
0.0
 30
0.0
 70
0
  0
VERTEX
  5
4A3
  8
L_Road_Prefectural
 10
-5878.979544641279
 20
-33563.852246801864
 30
0.0
 70
0
  0
VERTEX
  5
4A4
  8
L_Road_Prefectural
 10
-5887.3786568320465
 20
-33578.17281896509
 30
0.0
 70
0
  0
SEQEND
  5
4A2
  8
L_Road_Prefectural
  0
POLYLINE
  5
4A5
  8
L_Road_Prefectural
 66
1
 10
0.0
 20
0.0
 30
0.0
 70
0
  0
VERTEX
  5
4A7
  8
L_Road_Prefectural
 10
-5906.514749805293
 20
-33569.0146525843
 30
0.0
 70
0
  0
VERTEX
  5
4A8
  8
L_Road_Prefectural
 10
-5903.579490378088
 20
-33563.835937771364
 30
0.0
 70
0
  0
SEQEND
  5
4A6
  8
L_Road_Prefectural
  0
POLYLINE
  5
4A9
  8
L_Road_Prefectural
 66
1
 10
0.0
 20
0.0
 30
0.0
 70
0
  0
VERTEX
  5
4AB
  8
L_Road_Prefectural
 10
-5898.998376927133
 20
-33598.963345608136
 30
0.0
 70
0
  0
VERTEX
  5
4AC
  8
L_Road_Prefectural
 10
-5906.543156125534
 20
-33611.7514610814
 30
0.0
 70
0
  0
SEQEND
  5
4AA
  8
L_Road_Prefectural
  0
POLYLINE
  5
4AD
  8
L_Road_General
 66
1
 10
0.0
 20
0.0
 30
0.0
 70
0
  0
VERTEX
  5
4AF
  8
L_Road_General
 10
-5937.3051566628965
 20
-33501.82318728867
 30
0.0
 70
0
  0
VERTEX
  5
4B0
  8
L_Road_General
 10
-5932.049691225253
 20
-33503.752441120574
 30
0.0
 70
0
  0
VERTEX
  5
4B1
  8
L_Road_General
 10
-5929.107242472315
 20
-33504.841884005815
 30
0.0
 70
0
  0
SEQEND
  5
4AE
  8
L_Road_General
  0
POLYLINE
  5
4B2
  8
L_Road_General
 66
1
 10
0.0
 20
0.0
 30
0.0
 70
0
  0
VERTEX
  5
4B4
  8
L_Road_General
 10
-5933.438693752997
 20
-33516.393466180205
 30
0.0
 70
0
  0
VERTEX
  5
4B5
  8
L_Road_General
 10
-5941.727421064344
 20
-33513.04241527733
 30
0.0
 70
0
  0
SEQEND
  5
4B3
  8
L_Road_General
  0
POLYLINE
  5
4B6
  8
L_Road_General
 66
1
 10
0.0
 20
0.0
 30
0.0
 70
0
  0
VERTEX
  5
4B8
  8
L_Road_General
 10
-5906.486908071539
 20
-33527.1276425704
 30
0.0
 70
0
  0
VERTEX
  5
4B9
  8
L_Road_General
 10
-5909.649286775386
 20
-33525.94743475825
 30
0.0
 70
0
  0
SEQEND
  5
4B7
  8
L_Road_General
  0
POLYLINE
  5
4BA
  8
L_Road_General
 66
1
 10
0.0
 20
0.0
 30
0.0
 70
0
  0
VERTEX
  5
4BC
  8
L_Road_General
 10
-5926.581889880202
 20
-33505.772457144645
 30
0.0
 70
0
  0
VERTEX
  5
4BD
  8
L_Road_General
 10
-5924.299217487986
 20
-33506.619796529114
 30
0.0
 70
0
  0
VERTEX
  5
4BE
  8
L_Road_General
 10
-5920.150888006104
 20
-33508.034774133856
 30
0.0
 70
0
  0
VERTEX
  5
4BF
  8
L_Road_General
 10
-5915.039539806758
 20
-33509.96392320928
 30
0.0
 70
0
  0
VERTEX
  5
4C0
  8
L_Road_General
 10
-5907.728934358596
 20
-33512.71014218922
 30
0.0
 70
0
  0
VERTEX
  5
4C1
  8
L_Road_General
 10
-5906.477581451748
 20
-33513.09612324927
 30
0.0
 70
0
  0
SEQEND
  5
4BB
  8
L_Road_General
  0
POLYLINE
  5
4C2
  8
L_Road_General
 66
1
 10
0.0
 20
0.0
 30
0.0
 70
0
  0
VERTEX
  5
4C4
  8
L_Road_General
 10
-5909.649286775386
 20
-33525.94743475825
 30
0.0
 70
0
  0
VERTEX
  5
4C5
  8
L_Road_General
 10
-5931.080219599094
 20
-33517.32393035777
 30
0.0
 70
0
  0
SEQEND
  5
4C3
  8
L_Road_General
  0
POLYLINE
  5
4C6
  8
L_Road_General
 66
1
 10
0.0
 20
0.0
 30
0.0
 70
0
  0
VERTEX
  5
4C8
  8
L_Road_General
 10
-6056.508016165068
 20
-33563.73302311137
 30
0.0
 70
0
  0
VERTEX
  5
4C9
  8
L_Road_General
 10
-6046.998172610691
 20
-33545.029467932174
 30
0.0
 70
0
  0
VERTEX
  5
4CA
  8
L_Road_General
 10
-6045.372674037793
 20
-33541.80588220932
 30
0.0
 70
0
  0
VERTEX
  5
4CB
  8
L_Road_General
 10
-6043.727167980931
 20
-33542.62261430877
 30
0.0
 70
0
  0
VERTEX
  5
4CC
  8
L_Road_General
 10
-6031.558800441312
 20
-33518.55523225616
 30
0.0
 70
0
  0
SEQEND
  5
4C7
  8
L_Road_General
  0
POLYLINE
  5
4CD
  8
L_Road_General
 66
1
 10
0.0
 20
0.0
 30
0.0
 70
0
  0
VERTEX
  5
4CF
  8
L_Road_General
 10
-6020.495368317836
 20
-33524.21914738172
 30
0.0
 70
0
  0
VERTEX
  5
4D0
  8
L_Road_General
 10
-6022.584323851343
 20
-33528.552555059054
 30
0.0
 70
0
  0
VERTEX
  5
4D1
  8
L_Road_General
 10
-6024.61987553297
 20
-33532.432882821224
 30
0.0
 70
0
  0
VERTEX
  5
4D2
  8
L_Road_General
 10
-6040.411474250152
 20
-33563.74397935622
 30
0.0
 70
0
  0
SEQEND
  5
4CE
  8
L_Road_General
  0
POLYLINE
  5
4D3
  8
L_Road_General
 66
1
 10
0.0
 20
0.0
 30
0.0
 70
0
  0
VERTEX
  5
4D5
  8
L_Road_General
 10
-6018.110456991475
 20
-33519.70469492808
 30
0.0
 70
0
  0
VERTEX
  5
4D6
  8
L_Road_General
 10
-6020.495368317836
 20
-33524.21914738172
 30
0.0
 70
0
  0
SEQEND
  5
4D4
  8
L_Road_General
  0
POLYLINE
  5
4D7
  8
L_Road_General
 66
1
 10
0.0
 20
0.0
 30
0.0
 70
0
  0
VERTEX
  5
4D9
  8
L_Road_General
 10
-6029.523125905883
 20
-33514.49366544762
 30
0.0
 70
0
  0
VERTEX
  5
4DA
  8
L_Road_General
 10
-6028.588842649235
 20
-33512.62896866916
 30
0.0
 70
0
  0
VERTEX
  5
4DB
  8
L_Road_General
 10
-6016.42057751677
 20
-33488.591854253296
 30
0.0
 70
0
  0
SEQEND
  5
4D8
  8
L_Road_General
  0
POLYLINE
  5
4DC
  8
L_Road_General
 66
1
 10
0.0
 20
0.0
 30
0.0
 70
0
  0
VERTEX
  5
4DE
  8
L_Road_General
 10
-6004.931956835975
 20
-33493.62165694202
 30
0.0
 70
0
  0
VERTEX
  5
4DF
  8
L_Road_General
 10
-6006.329519980212
 20
-33496.33185539098
 30
0.0
 70
0
  0
VERTEX
  5
4E0
  8
L_Road_General
 10
-6006.846063638257
 20
-33497.41143249871
 30
0.0
 70
0
  0
VERTEX
  5
4E1
  8
L_Road_General
 10
-6010.514746506092
 20
-33504.63615397847
 30
0.0
 70
0
  0
VERTEX
  5
4E2
  8
L_Road_General
 10
-6012.38332458496
 20
-33508.39575603529
 30
0.0
 70
0
  0
VERTEX
  5
4E3
  8
L_Road_General
 10
-6014.540480697796
 20
-33512.638488445875
 30
0.0
 70
0
  0
VERTEX
  5
4E4
  8
L_Road_General
 10
-6018.110456991475
 20
-33519.70469492808
 30
0.0
 70
0
  0
SEQEND
  5
4DD
  8
L_Road_General
  0
POLYLINE
  5
4E5
  8
L_Road_General
 66
1
 10
0.0
 20
0.0
 30
0.0
 70
0
  0
VERTEX
  5
4E7
  8
L_Road_General
 10
-5904.934291719736
 20
-33513.640889010356
 30
0.0
 70
0
  0
VERTEX
  5
4E8
  8
L_Road_General
 10
-5883.874572807169
 20
-33521.56930131914
 30
0.0
 70
0
  0
VERTEX
  5
4E9
  8
L_Road_General
 10
-5880.514848864973
 20
-33522.56838309518
 30
0.0
 70
0
  0
SEQEND
  5
4E6
  8
L_Road_General
  0
POLYLINE
  5
4EA
  8
L_Road_General
 66
1
 10
0.0
 20
0.0
 30
0.0
 70
0
  0
VERTEX
  5
4EC
  8
L_Road_General
 10
-5888.671763231069
 20
-33537.75752434077
 30
0.0
 70
0
  0
VERTEX
  5
4ED
  8
L_Road_General
 10
-5889.829476126383
 20
-33533.4219295568
 30
0.0
 70
0
  0
VERTEX
  5
4EE
  8
L_Road_General
 10
-5906.486908071539
 20
-33527.1276425704
 30
0.0
 70
0
  0
SEQEND
  5
4EB
  8
L_Road_General
  0
POLYLINE
  5
4EF
  8
L_Road_General
 66
1
 10
0.0
 20
0.0
 30
0.0
 70
0
  0
VERTEX
  5
4F1
  8
L_Road_General
 10
-5906.477581451748
 20
-33513.09612324927
 30
0.0
 70
0
  0
VERTEX
  5
4F2
  8
L_Road_General
 10
-5904.934291719736
 20
-33513.640889010356
 30
0.0
 70
0
  0
SEQEND
  5
4F0
  8
L_Road_General
  0
POLYLINE
  5
4F3
  8
L_Road_General
 66
1
 10
0.0
 20
0.0
 30
0.0
 70
0
  0
VERTEX
  5
4F5
  8
L_Road_General
 10
-6006.729621990362
 20
-33605.69554792194
 30
0.0
 70
0
  0
VERTEX
  5
4F6
  8
L_Road_General
 10
-6003.756903152486
 20
-33606.92853677511
 30
0.0
 70
0
  0
VERTEX
  5
4F7
  8
L_Road_General
 10
-5997.280660201543
 20
-33609.67429524632
 30
0.0
 70
0
  0
VERTEX
  5
4F8
  8
L_Road_General
 10
-5990.08396002142
 20
-33612.684856524844
 30
0.0
 70
0
  0
SEQEND
  5
4F4
  8
L_Road_General
  0
POLYLINE
  5
4F9
  8
L_Road_General
 66
1
 10
0.0
 20
0.0
 30
0.0
 70
0
  0
VERTEX
  5
4FB
  8
L_Road_General
 10
-5995.84230905027
 20
-33625.23245485229
 30
0.0
 70
0
  0
VERTEX
  5
4FC
  8
L_Road_General
 10
-6011.8124017054815
 20
-33617.54879567423
 30
0.0
 70
0
  0
SEQEND
  5
4FA
  8
L_Road_General
  0
POLYLINE
  5
4FD
  8
L_Road_General
 66
1
 10
0.0
 20
0.0
 30
0.0
 70
0
  0
VERTEX
  5
4FF
  8
L_Road_General
 10
-6032.24727708593
 20
-33594.11612178678
 30
0.0
 70
0
  0
VERTEX
  5
500
  8
L_Road_General
 10
-6030.60167812497
 20
-33594.81202401638
 30
0.0
 70
0
  0
VERTEX
  5
501
  8
L_Road_General
 10
-6028.690706600289
 20
-33595.68935440308
 30
0.0
 70
0
  0
VERTEX
  5
502
  8
L_Road_General
 10
-6025.649846819896
 20
-33597.103643841394
 30
0.0
 70
0
  0
VERTEX
  5
503
  8
L_Road_General
 10
-6019.295125218279
 20
-33600.053237486725
 30
0.0
 70
0
  0
SEQEND
  5
4FE
  8
L_Road_General
  0
POLYLINE
  5
504
  8
L_Road_General
 66
1
 10
0.0
 20
0.0
 30
0.0
 70
0
  0
VERTEX
  5
506
  8
L_Road_General
 10
-6024.232691492724
 20
-33610.28288301222
 30
0.0
 70
0
  0
VERTEX
  5
507
  8
L_Road_General
 10
-6037.412812553018
 20
-33604.919552226085
 30
0.0
 70
0
  0
SEQEND
  5
505
  8
L_Road_General
  0
POLYLINE
  5
508
  8
L_Road_General
 66
1
 10
0.0
 20
0.0
 30
0.0
 70
0
  0
VERTEX
  5
50A
  8
L_Road_General
 10
-5990.08396002142
 20
-33612.684856524844
 30
0.0
 70
0
  0
VERTEX
  5
50B
  8
L_Road_General
 10
-5973.029258663193
 20
-33620.58065855906
 30
0.0
 70
0
  0
SEQEND
  5
509
  8
L_Road_General
  0
POLYLINE
  5
50C
  8
L_Road_General
 66
1
 10
0.0
 20
0.0
 30
0.0
 70
0
  0
VERTEX
  5
50E
  8
L_Road_General
 10
-5979.295844972197
 20
-33633.15814516384
 30
0.0
 70
0
  0
VERTEX
  5
50F
  8
L_Road_General
 10
-5995.84230905027
 20
-33625.23245485229
 30
0.0
 70
0
  0
SEQEND
  5
50D
  8
L_Road_General
  0
POLYLINE
  5
510
  8
L_Road_General
 66
1
 10
0.0
 20
0.0
 30
0.0
 70
0
  0
VERTEX
  5
512
  8
L_Road_General
 10
-6035.276611499093
 20
-33642.74916645878
 30
0.0
 70
0
  0
VERTEX
  5
513
  8
L_Road_General
 10
-6022.270879019192
 20
-33614.4982450964
 30
0.0
 70
0
  0
SEQEND
  5
511
  8
L_Road_General
  0
POLYLINE
  5
514
  8
L_Road_General
 66
1
 10
0.0
 20
0.0
 30
0.0
 70
0
  0
VERTEX
  5
516
  8
L_Road_General
 10
-6015.696289315799
 20
-33617.636791694094
 30
0.0
 70
0
  0
VERTEX
  5
517
  8
L_Road_General
 10
-6028.451659411572
 20
-33645.85769414174
 30
0.0
 70
0
  0
SEQEND
  5
515
  8
L_Road_General
  0
POLYLINE
  5
518
  8
L_Road_General
 66
1
 10
0.0
 20
0.0
 30
0.0
 70
0
  0
VERTEX
  5
51A
  8
L_Road_General
 10
-6019.295125218279
 20
-33600.053237486725
 30
0.0
 70
0
  0
VERTEX
  5
51B
  8
L_Road_General
 10
-6012.515673027019
 20
-33603.101291214756
 30
0.0
 70
0
  0
VERTEX
  5
51C
  8
L_Road_General
 10
-6010.483343876262
 20
-33604.00135666146
 30
0.0
 70
0
  0
VERTEX
  5
51D
  8
L_Road_General
 10
-6006.729621990362
 20
-33605.69554792194
 30
0.0
 70
0
  0
SEQEND
  5
519
  8
L_Road_General
  0
POLYLINE
  5
51E
  8
L_Road_General
 66
1
 10
0.0
 20
0.0
 30
0.0
 70
0
  0
VERTEX
  5
520
  8
L_Road_General
 10
-6011.8124017054815
 20
-33617.54879567423
 30
0.0
 70
0
  0
VERTEX
  5
521
  8
L_Road_General
 10
-6015.696289315799
 20
-33617.636791694094
 30
0.0
 70
0
  0
SEQEND
  5
51F
  8
L_Road_General
  0
POLYLINE
  5
522
  8
L_Road_General
 66
1
 10
0.0
 20
0.0
 30
0.0
 70
0
  0
VERTEX
  5
524
  8
L_Road_General
 10
-6022.270879019192
 20
-33614.4982450964
 30
0.0
 70
0
  0
VERTEX
  5
525
  8
L_Road_General
 10
-6024.232691492724
 20
-33610.28288301222
 30
0.0
 70
0
  0
SEQEND
  5
523
  8
L_Road_General
  0
POLYLINE
  5
526
  8
L_Road_General
 66
1
 10
0.0
 20
0.0
 30
0.0
 70
0
  0
VERTEX
  5
528
  8
L_Road_General
 10
-5968.760021280899
 20
-33622.75096174505
 30
0.0
 70
0
  0
VERTEX
  5
529
  8
L_Road_General
 10
-5958.135822609694
 20
-33627.576292877005
 30
0.0
 70
0
  0
VERTEX
  5
52A
  8
L_Road_General
 10
-5951.8492666694165
 20
-33630.43517796213
 30
0.0
 70
0
  0
SEQEND
  5
527
  8
L_Road_General
  0
POLYLINE
  5
52B
  8
L_Road_General
 66
1
 10
0.0
 20
0.0
 30
0.0
 70
0
  0
VERTEX
  5
52D
  8
L_Road_General
 10
-5957.0832996433055
 20
-33641.69177599262
 30
0.0
 70
0
  0
VERTEX
  5
52E
  8
L_Road_General
 10
-5973.850061326314
 20
-33634.181334106004
 30
0.0
 70
0
  0
SEQEND
  5
52C
  8
L_Road_General
  0
POLYLINE
  5
52F
  8
L_Road_General
 66
1
 10
0.0
 20
0.0
 30
0.0
 70
0
  0
VERTEX
  5
531
  8
L_Road_General
 10
-5994.707556125938
 20
-33663.54480142051
 30
0.0
 70
0
  0
VERTEX
  5
532
  8
L_Road_General
 10
-5979.198446473279
 20
-33634.963150042124
 30
0.0
 70
0
  0
SEQEND
  5
530
  8
L_Road_General
  0
POLYLINE
  5
533
  8
L_Road_General
 66
1
 10
0.0
 20
0.0
 30
0.0
 70
0
  0
VERTEX
  5
535
  8
L_Road_General
 10
-5975.179447716259
 20
-33637.01245860529
 30
0.0
 70
0
  0
VERTEX
  5
536
  8
L_Road_General
 10
-5990.78707984189
 20
-33665.473223907175
 30
0.0
 70
0
  0
SEQEND
  5
534
  8
L_Road_General
  0
POLYLINE
  5
537
  8
L_Road_General
 66
1
 10
0.0
 20
0.0
 30
0.0
 70
0
  0
VERTEX
  5
539
  8
L_Road_General
 10
-5973.029258663193
 20
-33620.58065855906
 30
0.0
 70
0
  0
VERTEX
  5
53A
  8
L_Road_General
 10
-5968.760021280899
 20
-33622.75096174505
 30
0.0
 70
0
  0
SEQEND
  5
538
  8
L_Road_General
  0
POLYLINE
  5
53B
  8
L_Road_General
 66
1
 10
0.0
 20
0.0
 30
0.0
 70
0
  0
VERTEX
  5
53D
  8
L_Road_General
 10
-5973.850061326314
 20
-33634.181334106004
 30
0.0
 70
0
  0
VERTEX
  5
53E
  8
L_Road_General
 10
-5974.366553164359
 20
-33635.17785721236
 30
0.0
 70
0
  0
VERTEX
  5
53F
  8
L_Road_General
 10
-5975.179447716259
 20
-33637.01245860529
 30
0.0
 70
0
  0
SEQEND
  5
53C
  8
L_Road_General
  0
POLYLINE
  5
540
  8
L_Road_General
 66
1
 10
0.0
 20
0.0
 30
0.0
 70
0
  0
VERTEX
  5
542
  8
L_Road_General
 10
-5979.198446473279
 20
-33634.963150042124
 30
0.0
 70
0
  0
VERTEX
  5
543
  8
L_Road_General
 10
-5979.295844972197
 20
-33633.15814516384
 30
0.0
 70
0
  0
SEQEND
  5
541
  8
L_Road_General
  0
POLYLINE
  5
544
  8
L_Road_General
 66
1
 10
0.0
 20
0.0
 30
0.0
 70
0
  0
VERTEX
  5
546
  8
L_Road_General
 10
-5904.273598799816
 20
-33660.92436162675
 30
0.0
 70
0
  0
VERTEX
  5
547
  8
L_Road_General
 10
-5876.152051704833
 20
-33612.6400927054
 30
0.0
 70
0
  0
SEQEND
  5
545
  8
L_Road_General
  0
POLYLINE
  5
548
  8
L_Road_General
 66
1
 10
0.0
 20
0.0
 30
0.0
 70
0
  0
VERTEX
  5
54A
  8
L_Road_General
 10
-5872.891499118787
 20
-33614.53780769241
 30
0.0
 70
0
  0
VERTEX
  5
54B
  8
L_Road_General
 10
-5900.808282448835
 20
-33662.91285795053
 30
0.0
 70
0
  0
SEQEND
  5
549
  8
L_Road_General
  0
POLYLINE
  5
54C
  8
L_Road_Misc
 66
1
 10
0.0
 20
0.0
 30
0.0
 70
0
  0
VERTEX
  5
54E
  8
L_Road_Misc
 10
-5934.738025411423
 20
-33519.7003524235
 30
0.0
 70
0
  0
VERTEX
  5
54F
  8
L_Road_Misc
 10
-5933.438693752997
 20
-33516.393466180205
 30
0.0
 70
0
  0
SEQEND
  5
54D
  8
L_Road_Misc
  0
POLYLINE
  5
550
  8
L_Road_Misc
 66
1
 10
0.0
 20
0.0
 30
0.0
 70
0
  0
VERTEX
  5
552
  8
L_Road_Misc
 10
-5931.080219599094
 20
-33517.32393035777
 30
0.0
 70
0
  0
VERTEX
  5
553
  8
L_Road_Misc
 10
-5932.356698175704
 20
-33520.48734546394
 30
0.0
 70
0
  0
SEQEND
  5
551
  8
L_Road_Misc
  0
POLYLINE
  5
554
  8
L_Road_Misc
 66
1
 10
0.0
 20
0.0
 30
0.0
 70
0
  0
VERTEX
  5
556
  8
L_Road_Misc
 10
-5945.613298590448
 20
-33516.17387400186
 30
0.0
 70
0
  0
VERTEX
  5
557
  8
L_Road_Misc
 10
-5944.283500121854
 20
-33512.685764334645
 30
0.0
 70
0
  0
VERTEX
  5
558
  8
L_Road_Misc
 10
-5944.063136446909
 20
-33512.11196393294
 30
0.0
 70
0
  0
SEQEND
  5
555
  8
L_Road_Misc
  0
POLYLINE
  5
559
  8
L_Road_Misc
 66
1
 10
0.0
 20
0.0
 30
0.0
 70
0
  0
VERTEX
  5
55B
  8
L_Road_Misc
 10
-5941.727421064344
 20
-33513.04241527733
 30
0.0
 70
0
  0
VERTEX
  5
55C
  8
L_Road_Misc
 10
-5943.254729799607
 20
-33516.960854428646
 30
0.0
 70
0
  0
SEQEND
  5
55A
  8
L_Road_Misc
  0
POLYLINE
  5
55D
  8
L_Aisle_Misc
 66
1
 10
0.0
 20
0.0
 30
0.0
 70
0
  0
VERTEX
  5
55F
  8
L_Aisle_Misc
 10
-6021.92028312139
 20
-33533.69589041988
 30
0.0
 70
0
  0
VERTEX
  5
560
  8
L_Aisle_Misc
 10
-6024.61987553297
 20
-33532.432882821224
 30
0.0
 70
0
  0
VERTEX
  5
561
  8
L_Aisle_Misc
 10
-6022.584323851343
 20
-33528.552555059054
 30
0.0
 70
0
  0
VERTEX
  5
562
  8
L_Aisle_Misc
 10
-6019.854451635005
 20
-33529.90620552463
 30
0.0
 70
0
  0
VERTEX
  5
563
  8
L_Aisle_Misc
 10
-6021.753462951301
 20
-33533.78662702571
 30
0.0
 70
0
  0
VERTEX
  5
564
  8
L_Aisle_Misc
 10
-6021.92028312139
 20
-33533.69589041988
 30
0.0
 70
0
  0
SEQEND
  5
55E
  8
L_Aisle_Misc
  0
POLYLINE
  5
565
  8
L_Aisle_Misc
 66
1
 10
0.0
 20
0.0
 30
0.0
 70
0
  0
VERTEX
  5
567
  8
L_Aisle_Misc
 10
-5951.597017869575
 20
-33514.30453732945
 30
0.0
 70
0
  0
VERTEX
  5
568
  8
L_Aisle_Misc
 10
-5945.909254820445
 20
-33516.354922730876
 30
0.0
 70
0
  0
VERTEX
  5
569
  8
L_Aisle_Misc
 10
-5946.889175692046
 20
-33518.43105298464
 30
0.0
 70
0
  0
VERTEX
  5
56A
  8
L_Aisle_Misc
 10
-5952.903278746926
 20
-33516.62211021895
 30
0.0
 70
0
  0
VERTEX
  5
56B
  8
L_Aisle_Misc
 10
-5951.597017869575
 20
-33514.30453732945
 30
0.0
 70
0
  0
SEQEND
  5
566
  8
L_Aisle_Misc
  0
POLYLINE
  5
56C
  8
L_Aisle_Misc
 66
1
 10
0.0
 20
0.0
 30
0.0
 70
0
  0
VERTEX
  5
56E
  8
L_Aisle_Misc
 10
-5943.678090529177
 20
-33526.16640149575
 30
0.0
 70
0
  0
VERTEX
  5
56F
  8
L_Aisle_Misc
 10
-5943.73098711428
 20
-33525.86428785992
 30
0.0
 70
0
  0
VERTEX
  5
570
  8
L_Aisle_Misc
 10
-5942.698028140909
 20
-33523.87881445552
 30
0.0
 70
0
  0
VERTEX
  5
571
  8
L_Aisle_Misc
 10
-5940.142531408727
 20
-33525.111491790296
 30
0.0
 70
0
  0
VERTEX
  5
572
  8
L_Aisle_Misc
 10
-5941.319458317651
 20
-33526.86275883611
 30
0.0
 70
0
  0
SEQEND
  5
56D
  8
L_Aisle_Misc
  0
POLYLINE
  5
573
  8
L_Aisle_Misc
 66
1
 10
0.0
 20
0.0
 30
0.0
 70
0
  0
VERTEX
  5
575
  8
L_Aisle_Misc
 10
-5950.235787712338
 20
-33531.848637839765
 30
0.0
 70
0
  0
VERTEX
  5
576
  8
L_Aisle_Misc
 10
-5946.525258172824
 20
-33530.046203113976
 30
0.0
 70
0
  0
VERTEX
  5
577
  8
L_Aisle_Misc
 10
-5944.809742601468
 20
-33528.27264059774
 30
0.0
 70
0
  0
VERTEX
  5
578
  8
L_Aisle_Misc
 10
-5943.678090529177
 20
-33526.16640149575
 30
0.0
 70
0
  0
SEQEND
  5
574
  8
L_Aisle_Misc
  0
POLYLINE
  5
579
  8
L_Aisle_Misc
 66
1
 10
0.0
 20
0.0
 30
0.0
 70
0
  0
VERTEX
  5
57B
  8
L_Aisle_Misc
 10
-5941.319458317651
 20
-33526.86275883611
 30
0.0
 70
0
  0
VERTEX
  5
57C
  8
L_Aisle_Misc
 10
-5942.155092748732
 20
-33528.69732583729
 30
0.0
 70
0
  0
VERTEX
  5
57D
  8
L_Aisle_Misc
 10
-5943.537526733335
 20
-33531.49062641752
 30
0.0
 70
0
  0
SEQEND
  5
57A
  8
L_Aisle_Misc
  0
POLYLINE
  5
57E
  8
L_Aisle_Misc
 66
1
 10
0.0
 20
0.0
 30
0.0
 70
0
  0
VERTEX
  5
580
  8
L_Aisle_Misc
 10
-5946.337853764957
 20
-33533.384295356744
 30
0.0
 70
0
  0
VERTEX
  5
581
  8
L_Aisle_Misc
 10
-5947.369869474757
 20
-33533.95755387522
 30
0.0
 70
0
  0
VERTEX
  5
582
  8
L_Aisle_Misc
 10
-5947.9771362324245
 20
-33534.59151233447
 30
0.0
 70
0
  0
SEQEND
  5
57F
  8
L_Aisle_Misc
  0
POLYLINE
  5
583
  8
L_Aisle_Misc
 66
1
 10
0.0
 20
0.0
 30
0.0
 70
0
  0
VERTEX
  5
585
  8
L_Aisle_Misc
 10
-5943.537526733335
 20
-33531.49062641752
 30
0.0
 70
0
  0
VERTEX
  5
586
  8
L_Aisle_Misc
 10
-5940.784809307427
 20
-33532.73098885072
 30
0.0
 70
0
  0
SEQEND
  5
584
  8
L_Aisle_Misc
  0
POLYLINE
  5
587
  8
L_Aisle_Misc
 66
1
 10
0.0
 20
0.0
 30
0.0
 70
0
  0
VERTEX
  5
589
  8
L_Aisle_Misc
 10
-5940.984082877239
 20
-33535.79695272416
 30
0.0
 70
0
  0
VERTEX
  5
58A
  8
L_Aisle_Misc
 10
-5943.736543606979
 20
-33534.17143984396
 30
0.0
 70
0
  0
VERTEX
  5
58B
  8
L_Aisle_Misc
 10
-5946.337853764957
 20
-33533.384295356744
 30
0.0
 70
0
  0
SEQEND
  5
588
  8
L_Aisle_Misc
  0
POLYLINE
  5
58C
  8
L_Aisle_Misc
 66
1
 10
0.0
 20
0.0
 30
0.0
 70
0
  0
VERTEX
  5
58E
  8
L_Aisle_Misc
 10
-5947.9771362324245
 20
-33534.59151233447
 30
0.0
 70
0
  0
VERTEX
  5
58F
  8
L_Aisle_Misc
 10
-5948.326712503247
 20
-33535.55037776603
 30
0.0
 70
0
  0
VERTEX
  5
590
  8
L_Aisle_Misc
 10
-5948.494220991943
 20
-33536.48670926858
 30
0.0
 70
0
  0
VERTEX
  5
591
  8
L_Aisle_Misc
 10
-5952.2766379071645
 20
-33532.36080441042
 30
0.0
 70
0
  0
VERTEX
  5
592
  8
L_Aisle_Misc
 10
-5950.235787712338
 20
-33531.848637839765
 30
0.0
 70
0
  0
SEQEND
  5
58D
  8
L_Aisle_Misc
  0
POLYLINE
  5
593
  8
L_Aisle_Misc
 66
1
 10
0.0
 20
0.0
 30
0.0
 70
0
  0
VERTEX
  5
595
  8
L_Aisle_Misc
 10
-5940.784809307427
 20
-33532.73098885072
 30
0.0
 70
0
  0
VERTEX
  5
596
  8
L_Aisle_Misc
 10
-5939.7529960897
 20
-33532.459807980944
 30
0.0
 70
0
  0
VERTEX
  5
597
  8
L_Aisle_Misc
 10
-5937.3044608242935
 20
-33534.840312596396
 30
0.0
 70
0
  0
VERTEX
  5
598
  8
L_Aisle_Misc
 10
-5938.656133215158
 20
-33537.0068232293
 30
0.0
 70
0
  0
SEQEND
  5
594
  8
L_Aisle_Misc
  0
POLYLINE
  5
599
  8
L_Aisle_Misc
 66
1
 10
0.0
 20
0.0
 30
0.0
 70
0
  0
VERTEX
  5
59B
  8
L_Aisle_Misc
 10
-5938.656133215158
 20
-33537.0068232293
 30
0.0
 70
0
  0
VERTEX
  5
59C
  8
L_Aisle_Misc
 10
-5938.755608151149
 20
-33538.29814295997
 30
0.0
 70
0
  0
VERTEX
  5
59D
  8
L_Aisle_Misc
 10
-5941.842434263115
 20
-33537.571090669175
 30
0.0
 70
0
  0
VERTEX
  5
59E
  8
L_Aisle_Misc
 10
-5940.984082877239
 20
-33535.79695272416
 30
0.0
 70
0
  0
SEQEND
  5
59A
  8
L_Aisle_Misc
  0
POLYLINE
  5
59F
  8
L_Aisle_Misc
 66
1
 10
0.0
 20
0.0
 30
0.0
 70
0
  0
VERTEX
  5
5A1
  8
L_Aisle_Misc
 10
-5949.515254964252
 20
-33520.65712064439
 30
0.0
 70
0
  0
VERTEX
  5
5A2
  8
L_Aisle_Misc
 10
-5942.698028140909
 20
-33523.87881445552
 30
0.0
 70
0
  0
VERTEX
  5
5A3
  8
L_Aisle_Misc
 10
-5943.73098711428
 20
-33525.86428785992
 30
0.0
 70
0
  0
VERTEX
  5
5A4
  8
L_Aisle_Misc
 10
-5951.731414124649
 20
-33522.43034544054
 30
0.0
 70
0
  0
VERTEX
  5
5A5
  8
L_Aisle_Misc
 10
-5949.515254964252
 20
-33520.65712064439
 30
0.0
 70
0
  0
SEQEND
  5
5A0
  8
L_Aisle_Misc
  0
POLYLINE
  5
5A6
  8
L_Aisle_Misc
 66
1
 10
0.0
 20
0.0
 30
0.0
 70
0
  0
VERTEX
  5
5A8
  8
L_Aisle_Misc
 10
-5931.066505887171
 20
-33530.87214627163
 30
0.0
 70
0
  0
VERTEX
  5
5A9
  8
L_Aisle_Misc
 10
-5931.970509136848
 20
-33532.85770865498
 30
0.0
 70
0
  0
VERTEX
  5
5AA
  8
L_Aisle_Misc
 10
-5932.122441474349
 20
-33533.18989356784
 30
0.0
 70
0
  0
VERTEX
  5
5AB
  8
L_Aisle_Misc
 10
-5933.079740530828
 20
-33535.46994737702
 30
0.0
 70
0
  0
VERTEX
  5
5AC
  8
L_Aisle_Misc
 10
-5936.019489891304
 20
-33530.325097862835
 30
0.0
 70
0
  0
VERTEX
  5
5AD
  8
L_Aisle_Misc
 10
-5934.403107629771
 20
-33529.32931881871
 30
0.0
 70
0
  0
VERTEX
  5
5AE
  8
L_Aisle_Misc
 10
-5933.492527210122
 20
-33528.854153473614
 30
0.0
 70
0
  0
VERTEX
  5
5AF
  8
L_Aisle_Misc
 10
-5932.559185282042
 20
-33528.37145130026
 30
0.0
 70
0
  0
VERTEX
  5
5B0
  8
L_Aisle_Misc
 10
-5931.066505887171
 20
-33530.87214627163
 30
0.0
 70
0
  0
SEQEND
  5
5A7
  8
L_Aisle_Misc
  0
POLYLINE
  5
5B1
  8
L_Aisle_Misc
 66
1
 10
0.0
 20
0.0
 30
0.0
 70
0
  0
VERTEX
  5
5B3
  8
L_Aisle_Misc
 10
-5951.597017869575
 20
-33514.30453732945
 30
0.0
 70
0
  0
VERTEX
  5
5B4
  8
L_Aisle_Misc
 10
-5952.903278746926
 20
-33516.62211021895
 30
0.0
 70
0
  0
VERTEX
  5
5B5
  8
L_Aisle_Misc
 10
-5961.760511881465
 20
-33512.67405596566
 30
0.0
 70
0
  0
VERTEX
  5
5B6
  8
L_Aisle_Misc
 10
-5962.329242608171
 20
-33512.40180435875
 30
0.0
 70
0
  0
VERTEX
  5
5B7
  8
L_Aisle_Misc
 10
-5961.220101728646
 20
-33509.93306284521
 30
0.0
 70
0
  0
VERTEX
  5
5B8
  8
L_Aisle_Misc
 10
-5955.50246730436
 20
-33512.67825236619
 30
0.0
 70
0
  0
VERTEX
  5
5B9
  8
L_Aisle_Misc
 10
-5951.597017869575
 20
-33514.30453732945
 30
0.0
 70
0
  0
SEQEND
  5
5B2
  8
L_Aisle_Misc
  0
POLYLINE
  5
5BA
  8
L_Aisle_Misc
 66
1
 10
0.0
 20
0.0
 30
0.0
 70
0
  0
VERTEX
  5
5BC
  8
L_Aisle_Misc
 10
-6002.707837190468
 20
-33513.75662554311
 30
0.0
 70
0
  0
VERTEX
  5
5BD
  8
L_Aisle_Misc
 10
-6005.781413020195
 20
-33515.89174976784
 30
0.0
 70
0
  0
VERTEX
  5
5BE
  8
L_Aisle_Misc
 10
-6007.425860754001
 20
-33513.51177489497
 30
0.0
 70
0
  0
VERTEX
  5
5BF
  8
L_Aisle_Misc
 10
-6008.183824482859
 20
-33512.64278869295
 30
0.0
 70
0
  0
VERTEX
  5
5C0
  8
L_Aisle_Misc
 10
-6008.82051696194
 20
-33511.91737146554
 30
0.0
 70
0
  0
VERTEX
  5
5C1
  8
L_Aisle_Misc
 10
-6012.38332458496
 20
-33508.39575603529
 30
0.0
 70
0
  0
VERTEX
  5
5C2
  8
L_Aisle_Misc
 10
-6010.514746506092
 20
-33504.63615397847
 30
0.0
 70
0
  0
VERTEX
  5
5C3
  8
L_Aisle_Misc
 10
-6006.14854482766
 20
-33509.147614622365
 30
0.0
 70
0
  0
VERTEX
  5
5C4
  8
L_Aisle_Misc
 10
-6004.427854658981
 20
-33510.953691880604
 30
0.0
 70
0
  0
VERTEX
  5
5C5
  8
L_Aisle_Misc
 10
-6003.351855500675
 20
-33512.64605445346
 30
0.0
 70
0
  0
VERTEX
  5
5C6
  8
L_Aisle_Misc
 10
-6002.707837190468
 20
-33513.75662554311
 30
0.0
 70
0
  0
SEQEND
  5
5BB
  8
L_Aisle_Misc
  0
POLYLINE
  5
5C7
  8
L_Aisle_Misc
 66
1
 10
0.0
 20
0.0
 30
0.0
 70
0
  0
VERTEX
  5
5C9
  8
L_Aisle_Misc
 10
-6008.376065614202
 20
-33572.58642444193
 30
0.0
 70
0
  0
VERTEX
  5
5CA
  8
L_Aisle_Misc
 10
-6010.145962975776
 20
-33576.225290238224
 30
0.0
 70
0
  0
VERTEX
  5
5CB
  8
L_Aisle_Misc
 10
-6011.981081624632
 20
-33575.35556905698
 30
0.0
 70
0
  0
VERTEX
  5
5CC
  8
L_Aisle_Misc
 10
-6010.112545877315
 20
-33571.67901071545
 30
0.0
 70
0
  0
VERTEX
  5
5CD
  8
L_Aisle_Misc
 10
-6008.376065614202
 20
-33572.58642444193
 30
0.0
 70
0
  0
SEQEND
  5
5C8
  8
L_Aisle_Misc
  0
POLYLINE
  5
5CE
  8
L_Aisle_Misc
 66
1
 10
0.0
 20
0.0
 30
0.0
 70
0
  0
VERTEX
  5
5D0
  8
L_Aisle_Misc
 10
-6005.231778810487
 20
-33578.09395645276
 30
0.0
 70
0
  0
VERTEX
  5
5D1
  8
L_Aisle_Misc
 10
-6005.4292892959475
 20
-33578.51673500435
 30
0.0
 70
0
  0
VERTEX
  5
5D2
  8
L_Aisle_Misc
 10
-6006.293757836108
 20
-33578.09323871472
 30
0.0
 70
0
  0
SEQEND
  5
5CF
  8
L_Aisle_Misc
  0
POLYLINE
  5
5D3
  8
L_Aisle_Misc
 66
1
 10
0.0
 20
0.0
 30
0.0
 70
0
  0
VERTEX
  5
5D5
  8
L_Aisle_Misc
 10
-6006.293757836108
 20
-33578.09323871472
 30
0.0
 70
0
  0
VERTEX
  5
5D6
  8
L_Aisle_Misc
 10
-6006.930741052417
 20
-33577.7907281384
 30
0.0
 70
0
  0
VERTEX
  5
5D7
  8
L_Aisle_Misc
 10
-6005.229094333195
 20
-33574.12160695576
 30
0.0
 70
0
  0
VERTEX
  5
5D8
  8
L_Aisle_Misc
 10
-6003.682129687561
 20
-33574.84764398955
 30
0.0
 70
0
  0
VERTEX
  5
5D9
  8
L_Aisle_Misc
 10
-6005.231778810487
 20
-33578.09395645276
 30
0.0
 70
0
  0
SEQEND
  5
5D4
  8
L_Aisle_Misc
  0
POLYLINE
  5
5DA
  8
L_Aisle_Misc
 66
1
 10
0.0
 20
0.0
 30
0.0
 70
0
  0
VERTEX
  5
5DC
  8
L_Aisle_Misc
 10
-5999.5426054558975
 20
-33578.09779932239
 30
0.0
 70
0
  0
VERTEX
  5
5DD
  8
L_Aisle_Misc
 10
-6000.864304120309
 20
-33580.77786740492
 30
0.0
 70
0
  0
VERTEX
  5
5DE
  8
L_Aisle_Misc
 10
-6002.608413126793
 20
-33579.930865184666
 30
0.0
 70
0
  0
VERTEX
  5
5DF
  8
L_Aisle_Misc
 10
-6001.6969057649385
 20
-33578.09634458417
 30
0.0
 70
0
  0
SEQEND
  5
5DB
  8
L_Aisle_Misc
  0
POLYLINE
  5
5E0
  8
L_Aisle_Misc
 66
1
 10
0.0
 20
0.0
 30
0.0
 70
0
  0
VERTEX
  5
5E2
  8
L_Aisle_Misc
 10
-6001.6969057649385
 20
-33578.09634458417
 30
0.0
 70
0
  0
VERTEX
  5
5E3
  8
L_Aisle_Misc
 10
-6000.792963942756
 20
-33576.23161116073
 30
0.0
 70
0
  0
VERTEX
  5
5E4
  8
L_Aisle_Misc
 10
-5999.071632575359
 20
-33577.10880529539
 30
0.0
 70
0
  0
VERTEX
  5
5E5
  8
L_Aisle_Misc
 10
-5999.5426054558975
 20
-33578.09779932239
 30
0.0
 70
0
  0
SEQEND
  5
5E1
  8
L_Aisle_Misc
  0
POLYLINE
  5
5E6
  8
L_Aisle_Misc
 66
1
 10
0.0
 20
0.0
 30
0.0
 70
0
  0
VERTEX
  5
5E8
  8
L_Aisle_Misc
 10
-6011.87557157833
 20
-33598.797073096
 30
0.0
 70
0
  0
VERTEX
  5
5E9
  8
L_Aisle_Misc
 10
-6011.3835458190315
 20
-33600.330465701445
 30
0.0
 70
0
  0
VERTEX
  5
5EA
  8
L_Aisle_Misc
 10
-6010.868482176359
 20
-33601.44851301317
 30
0.0
 70
0
  0
VERTEX
  5
5EB
  8
L_Aisle_Misc
 10
-6010.307312381751
 20
-33601.69055722627
 30
0.0
 70
0
  0
VERTEX
  5
5EC
  8
L_Aisle_Misc
 10
-6009.844509998916
 20
-33601.57003790825
 30
0.0
 70
0
  0
VERTEX
  5
5ED
  8
L_Aisle_Misc
 10
-6008.463586389223
 20
-33601.05743437017
 30
0.0
 70
0
  0
SEQEND
  5
5E7
  8
L_Aisle_Misc
  0
POLYLINE
  5
5EE
  8
L_Aisle_Misc
 66
1
 10
0.0
 20
0.0
 30
0.0
 70
0
  0
VERTEX
  5
5F0
  8
L_Aisle_Misc
 10
-6007.334554536175
 20
-33602.86313059006
 30
0.0
 70
0
  0
VERTEX
  5
5F1
  8
L_Aisle_Misc
 10
-6009.132869441247
 20
-33603.64732494862
 30
0.0
 70
0
  0
VERTEX
  5
5F2
  8
L_Aisle_Misc
 10
-6011.120150010422
 20
-33603.434524273034
 30
0.0
 70
0
  0
VERTEX
  5
5F3
  8
L_Aisle_Misc
 10
-6011.802730141211
 20
-33603.25281399495
 30
0.0
 70
0
  0
VERTEX
  5
5F4
  8
L_Aisle_Misc
 10
-6012.447137050025
 20
-33602.708632479385
 30
0.0
 70
0
  0
VERTEX
  5
5F5
  8
L_Aisle_Misc
 10
-6012.863915010361
 20
-33602.07398072271
 30
0.0
 70
0
  0
VERTEX
  5
5F6
  8
L_Aisle_Misc
 10
-6013.477677909925
 20
-33601.084250761225
 30
0.0
 70
0
  0
VERTEX
  5
5F7
  8
L_Aisle_Misc
 10
-6014.037728265233
 20
-33599.18831499502
 30
0.0
 70
0
  0
SEQEND
  5
5EF
  8
L_Aisle_Misc
  0
POLYLINE
  5
5F8
  8
L_Aisle_Misc
 66
1
 10
0.0
 20
0.0
 30
0.0
 70
0
  0
VERTEX
  5
5FA
  8
L_Aisle_Misc
 10
-6021.130366668957
 20
-33565.77344593164
 30
0.0
 70
0
  0
VERTEX
  5
5FB
  8
L_Aisle_Misc
 10
-6017.134145078926
 20
-33567.79253436129
 30
0.0
 70
0
  0
VERTEX
  5
5FC
  8
L_Aisle_Misc
 10
-6012.963801345685
 20
-33570.32527483486
 30
0.0
 70
0
  0
VERTEX
  5
5FD
  8
L_Aisle_Misc
 10
-6014.930904281468
 20
-33573.93379733583
 30
0.0
 70
0
  0
VERTEX
  5
5FE
  8
L_Aisle_Misc
 10
-6022.809855444125
 20
-33570.31860692516
 30
0.0
 70
0
  0
SEQEND
  5
5F9
  8
L_Aisle_Misc
  0
POLYLINE
  5
5FF
  8
L_Aisle_Misc
 66
1
 10
0.0
 20
0.0
 30
0.0
 70
0
  0
VERTEX
  5
601
  8
L_Aisle_Misc
 10
-6025.430008533677
 20
-33563.7541504193
 30
0.0
 70
0
  0
VERTEX
  5
602
  8
L_Aisle_Misc
 10
-6021.130366668957
 20
-33565.77344593164
 30
0.0
 70
0
  0
SEQEND
  5
600
  8
L_Aisle_Misc
  0
POLYLINE
  5
603
  8
L_Aisle_Misc
 66
1
 10
0.0
 20
0.0
 30
0.0
 70
0
  0
VERTEX
  5
605
  8
L_Aisle_Misc
 10
-6022.809855444125
 20
-33570.31860692516
 30
0.0
 70
0
  0
VERTEX
  5
606
  8
L_Aisle_Misc
 10
-6033.5101753582
 20
-33566.036920611776
 30
0.0
 70
0
  0
VERTEX
  5
607
  8
L_Aisle_Misc
 10
-6032.552842104841
 20
-33563.74931780819
 30
0.0
 70
0
  0
SEQEND
  5
604
  8
L_Aisle_Misc
  0
POLYLINE
  5
608
  8
L_Aisle_Misc
 66
1
 10
0.0
 20
0.0
 30
0.0
 70
0
  0
VERTEX
  5
60A
  8
L_Aisle_Misc
 10
-6021.56727581221
 20
-33583.65628008444
 30
0.0
 70
0
  0
VERTEX
  5
60B
  8
L_Aisle_Misc
 10
-6022.173834743597
 20
-33583.2329567683
 30
0.0
 70
0
  0
VERTEX
  5
60C
  8
L_Aisle_Misc
 10
-6020.480804907421
 20
-33581.0968868837
 30
0.0
 70
0
  0
VERTEX
  5
60D
  8
L_Aisle_Misc
 10
-6018.669199621492
 20
-33583.08429105836
 30
0.0
 70
0
  0
SEQEND
  5
609
  8
L_Aisle_Misc
  0
POLYLINE
  5
60E
  8
L_Aisle_Misc
 66
1
 10
0.0
 20
0.0
 30
0.0
 70
0
  0
VERTEX
  5
610
  8
L_Aisle_Misc
 10
-6016.334025550356
 20
-33584.830385601184
 30
0.0
 70
0
  0
VERTEX
  5
611
  8
L_Aisle_Misc
 10
-6015.279978908879
 20
-33585.34463559551
 30
0.0
 70
0
  0
VERTEX
  5
612
  8
L_Aisle_Misc
 10
-6016.828821060672
 20
-33587.390181015755
 30
0.0
 70
0
  0
VERTEX
  5
613
  8
L_Aisle_Misc
 10
-6017.784173592357
 20
-33586.75516542935
 30
0.0
 70
0
  0
SEQEND
  5
60F
  8
L_Aisle_Misc
  0
POLYLINE
  5
614
  8
L_Aisle_Misc
 66
1
 10
0.0
 20
0.0
 30
0.0
 70
0
  0
VERTEX
  5
616
  8
L_Aisle_Misc
 10
-6018.669199621492
 20
-33583.08429105836
 30
0.0
 70
0
  0
VERTEX
  5
617
  8
L_Aisle_Misc
 10
-6016.334025550356
 20
-33584.830385601184
 30
0.0
 70
0
  0
SEQEND
  5
615
  8
L_Aisle_Misc
  0
POLYLINE
  5
618
  8
L_Aisle_Misc
 66
1
 10
0.0
 20
0.0
 30
0.0
 70
0
  0
VERTEX
  5
61A
  8
L_Aisle_Misc
 10
-6024.072305509685
 20
-33586.297784425165
 30
0.0
 70
0
  0
VERTEX
  5
61B
  8
L_Aisle_Misc
 10
-6027.8734964768255
 20
-33587.50352800653
 30
0.0
 70
0
  0
VERTEX
  5
61C
  8
L_Aisle_Misc
 10
-6030.749489396097
 20
-33589.064842512875
 30
0.0
 70
0
  0
VERTEX
  5
61D
  8
L_Aisle_Misc
 10
-6032.661869185355
 20
-33590.26431406923
 30
0.0
 70
0
  0
VERTEX
  5
61E
  8
L_Aisle_Misc
 10
-6035.462623582136
 20
-33592.73192009768
 30
0.0
 70
0
  0
VERTEX
  5
61F
  8
L_Aisle_Misc
 10
-6037.479730303124
 20
-33591.76389229297
 30
0.0
 70
0
  0
VERTEX
  5
620
  8
L_Aisle_Misc
 10
-6034.557180797903
 20
-33588.669553077605
 30
0.0
 70
0
  0
VERTEX
  5
621
  8
L_Aisle_Misc
 10
-6031.923905145949
 20
-33587.07786708584
 30
0.0
 70
0
  0
VERTEX
  5
622
  8
L_Aisle_Misc
 10
-6028.736822283087
 20
-33585.39593225588
 30
0.0
 70
0
  0
VERTEX
  5
623
  8
L_Aisle_Misc
 10
-6024.586613969226
 20
-33584.06959387422
 30
0.0
 70
0
  0
VERTEX
  5
624
  8
L_Aisle_Misc
 10
-6021.56727581221
 20
-33583.65628008444
 30
0.0
 70
0
  0
SEQEND
  5
619
  8
L_Aisle_Misc
  0
POLYLINE
  5
625
  8
L_Aisle_Misc
 66
1
 10
0.0
 20
0.0
 30
0.0
 70
0
  0
VERTEX
  5
627
  8
L_Aisle_Misc
 10
-6019.475183167675
 20
-33585.908195292395
 30
0.0
 70
0
  0
VERTEX
  5
628
  8
L_Aisle_Misc
 10
-6024.072305509685
 20
-33586.297784425165
 30
0.0
 70
0
  0
SEQEND
  5
626
  8
L_Aisle_Misc
  0
POLYLINE
  5
629
  8
L_Aisle_Misc
 66
1
 10
0.0
 20
0.0
 30
0.0
 70
0
  0
VERTEX
  5
62B
  8
L_Aisle_Misc
 10
-6030.60167812497
 20
-33594.81202401638
 30
0.0
 70
0
  0
VERTEX
  5
62C
  8
L_Aisle_Misc
 10
-6019.475183167675
 20
-33585.908195292395
 30
0.0
 70
0
  0
SEQEND
  5
62A
  8
L_Aisle_Misc
  0
POLYLINE
  5
62D
  8
L_Aisle_Misc
 66
1
 10
0.0
 20
0.0
 30
0.0
 70
0
  0
VERTEX
  5
62F
  8
L_Aisle_Misc
 10
-6017.784173592357
 20
-33586.75516542935
 30
0.0
 70
0
  0
VERTEX
  5
630
  8
L_Aisle_Misc
 10
-6028.690706600289
 20
-33595.68935440308
 30
0.0
 70
0
  0
VERTEX
  5
631
  8
L_Aisle_Misc
 10
-6030.60167812497
 20
-33594.81202401638
 30
0.0
 70
0
  0
SEQEND
  5
62E
  8
L_Aisle_Misc
  0
POLYLINE
  5
632
  8
L_Aisle_Misc
 66
1
 10
0.0
 20
0.0
 30
0.0
 70
0
  0
VERTEX
  5
634
  8
L_Aisle_Misc
 10
-6014.037728265233
 20
-33599.18831499502
 30
0.0
 70
0
  0
VERTEX
  5
635
  8
L_Aisle_Misc
 10
-6014.082020216184
 20
-33597.38335286496
 30
0.0
 70
0
  0
VERTEX
  5
636
  8
L_Aisle_Misc
 10
-6013.54128217944
 20
-33594.18921634397
 30
0.0
 70
0
  0
VERTEX
  5
637
  8
L_Aisle_Misc
 10
-6025.649846819896
 20
-33597.103643841394
 30
0.0
 70
0
  0
VERTEX
  5
638
  8
L_Aisle_Misc
 10
-6028.690706600289
 20
-33595.68935440308
 30
0.0
 70
0
  0
VERTEX
  5
639
  8
L_Aisle_Misc
 10
-6010.81610822939
 20
-33591.306191253876
 30
0.0
 70
0
  0
VERTEX
  5
63A
  8
L_Aisle_Misc
 10
-6011.897515960841
 20
-33597.596287496875
 30
0.0
 70
0
  0
VERTEX
  5
63B
  8
L_Aisle_Misc
 10
-6011.87557157833
 20
-33598.797073096
 30
0.0
 70
0
  0
SEQEND
  5
633
  8
L_Aisle_Misc
  0
POLYLINE
  5
63C
  8
L_Aisle_Misc
 66
1
 10
0.0
 20
0.0
 30
0.0
 70
0
  0
VERTEX
  5
63E
  8
L_Aisle_Misc
 10
-6005.08047713104
 20
-33601.15034545127
 30
0.0
 70
0
  0
VERTEX
  5
63F
  8
L_Aisle_Misc
 10
-5997.280660201543
 20
-33609.67429524632
 30
0.0
 70
0
  0
VERTEX
  5
640
  8
L_Aisle_Misc
 10
-6003.756903152486
 20
-33606.92853677511
 30
0.0
 70
0
  0
VERTEX
  5
641
  8
L_Aisle_Misc
 10
-6007.334554536175
 20
-33602.86313059006
 30
0.0
 70
0
  0
SEQEND
  5
63D
  8
L_Aisle_Misc
  0
POLYLINE
  5
642
  8
L_Aisle_Misc
 66
1
 10
0.0
 20
0.0
 30
0.0
 70
0
  0
VERTEX
  5
644
  8
L_Aisle_Misc
 10
-6006.3993529721465
 20
-33599.646602288565
 30
0.0
 70
0
  0
VERTEX
  5
645
  8
L_Aisle_Misc
 10
-6004.6839906265195
 20
-33598.13735798862
 30
0.0
 70
0
  0
VERTEX
  5
646
  8
L_Aisle_Misc
 10
-6003.408618031642
 20
-33596.66557645611
 30
0.0
 70
0
  0
VERTEX
  5
647
  8
L_Aisle_Misc
 10
-6002.2539417902035
 20
-33594.196847566855
 30
0.0
 70
0
  0
VERTEX
  5
648
  8
L_Aisle_Misc
 10
-6001.926828490427
 20
-33592.815050072764
 30
0.0
 70
0
  0
VERTEX
  5
649
  8
L_Aisle_Misc
 10
-6001.538235021286
 20
-33590.25518056878
 30
0.0
 70
0
  0
VERTEX
  5
64A
  8
L_Aisle_Misc
 10
-6001.2871205185775
 20
-33589.084788592176
 30
0.0
 70
0
  0
VERTEX
  5
64B
  8
L_Aisle_Misc
 10
-5999.322518074172
 20
-33589.1767392747
 30
0.0
 70
0
  0
VERTEX
  5
64C
  8
L_Aisle_Misc
 10
-5999.551038754517
 20
-33590.588810912406
 30
0.0
 70
0
  0
VERTEX
  5
64D
  8
L_Aisle_Misc
 10
-5999.96999437173
 20
-33593.178868151495
 30
0.0
 70
0
  0
VERTEX
  5
64E
  8
L_Aisle_Misc
 10
-6000.388338297477
 20
-33594.86268474446
 30
0.0
 70
0
  0
VERTEX
  5
64F
  8
L_Aisle_Misc
 10
-6001.740545246466
 20
-33597.78440165674
 30
0.0
 70
0
  0
VERTEX
  5
650
  8
L_Aisle_Misc
 10
-6003.258860441652
 20
-33599.5581002232
 30
0.0
 70
0
  0
VERTEX
  5
651
  8
L_Aisle_Misc
 10
-6005.08047713104
 20
-33601.15034545127
 30
0.0
 70
0
  0
SEQEND
  5
643
  8
L_Aisle_Misc
  0
POLYLINE
  5
652
  8
L_Aisle_Misc
 66
1
 10
0.0
 20
0.0
 30
0.0
 70
0
  0
VERTEX
  5
654
  8
L_Aisle_Misc
 10
-6008.463586389223
 20
-33601.05743437017
 30
0.0
 70
0
  0
VERTEX
  5
655
  8
L_Aisle_Misc
 10
-6006.3993529721465
 20
-33599.646602288565
 30
0.0
 70
0
  0
SEQEND
  5
653
  8
L_Aisle_Misc
  0
POLYLINE
  5
656
  8
L_Aisle_Misc
 66
1
 10
0.0
 20
0.0
 30
0.0
 70
0
  0
VERTEX
  5
658
  8
L_Aisle_Misc
 10
-6006.930741052417
 20
-33577.7907281384
 30
0.0
 70
0
  0
VERTEX
  5
659
  8
L_Aisle_Misc
 10
-6010.145962975776
 20
-33576.225290238224
 30
0.0
 70
0
  0
VERTEX
  5
65A
  8
L_Aisle_Misc
 10
-6008.376065614202
 20
-33572.58642444193
 30
0.0
 70
0
  0
VERTEX
  5
65B
  8
L_Aisle_Misc
 10
-6005.229094333195
 20
-33574.12160695576
 30
0.0
 70
0
  0
VERTEX
  5
65C
  8
L_Aisle_Misc
 10
-6006.930741052417
 20
-33577.7907281384
 30
0.0
 70
0
  0
SEQEND
  5
657
  8
L_Aisle_Misc
  0
POLYLINE
  5
65D
  8
L_Aisle_Misc
 66
1
 10
0.0
 20
0.0
 30
0.0
 70
0
  0
VERTEX
  5
65F
  8
L_Aisle_Misc
 10
-6001.6969057649385
 20
-33578.09634458417
 30
0.0
 70
0
  0
VERTEX
  5
660
  8
L_Aisle_Misc
 10
-6002.608413126793
 20
-33579.930865184666
 30
0.0
 70
0
  0
VERTEX
  5
661
  8
L_Aisle_Misc
 10
-6005.4292892959475
 20
-33578.51673500435
 30
0.0
 70
0
  0
VERTEX
  5
662
  8
L_Aisle_Misc
 10
-6005.231778810487
 20
-33578.09395645276
 30
0.0
 70
0
  0
SEQEND
  5
65E
  8
L_Aisle_Misc
  0
POLYLINE
  5
663
  8
L_Aisle_Misc
 66
1
 10
0.0
 20
0.0
 30
0.0
 70
0
  0
VERTEX
  5
665
  8
L_Aisle_Misc
 10
-6005.231778810487
 20
-33578.09395645276
 30
0.0
 70
0
  0
VERTEX
  5
666
  8
L_Aisle_Misc
 10
-6003.682129687561
 20
-33574.84764398955
 30
0.0
 70
0
  0
VERTEX
  5
667
  8
L_Aisle_Misc
 10
-6000.792963942756
 20
-33576.23161116073
 30
0.0
 70
0
  0
VERTEX
  5
668
  8
L_Aisle_Misc
 10
-6001.6969057649385
 20
-33578.09634458417
 30
0.0
 70
0
  0
SEQEND
  5
664
  8
L_Aisle_Misc
  0
POLYLINE
  5
669
  8
L_Aisle_Misc
 66
1
 10
0.0
 20
0.0
 30
0.0
 70
0
  0
VERTEX
  5
66B
  8
L_Aisle_Misc
 10
-5997.031783613484
 20
-33578.0994941493
 30
0.0
 70
0
  0
VERTEX
  5
66C
  8
L_Aisle_Misc
 10
-5995.682001536421
 20
-33578.76498102715
 30
0.0
 70
0
  0
VERTEX
  5
66D
  8
L_Aisle_Misc
 10
-5997.482318745274
 20
-33582.52466338213
 30
0.0
 70
0
  0
VERTEX
  5
66E
  8
L_Aisle_Misc
 10
-6000.864304120309
 20
-33580.77786740492
 30
0.0
 70
0
  0
VERTEX
  5
66F
  8
L_Aisle_Misc
 10
-5999.5426054558975
 20
-33578.09779932239
 30
0.0
 70
0
  0
SEQEND
  5
66A
  8
L_Aisle_Misc
  0
POLYLINE
  5
670
  8
L_Aisle_Misc
 66
1
 10
0.0
 20
0.0
 30
0.0
 70
0
  0
VERTEX
  5
672
  8
L_Aisle_Misc
 10
-5999.5426054558975
 20
-33578.09779932239
 30
0.0
 70
0
  0
VERTEX
  5
673
  8
L_Aisle_Misc
 10
-5999.071632575359
 20
-33577.10880529539
 30
0.0
 70
0
  0
VERTEX
  5
674
  8
L_Aisle_Misc
 10
-5997.031783613484
 20
-33578.0994941493
 30
0.0
 70
0
  0
SEQEND
  5
671
  8
L_Aisle_Misc
  0
POLYLINE
  5
675
  8
L_Aisle_Misc
 66
1
 10
0.0
 20
0.0
 30
0.0
 70
0
  0
VERTEX
  5
677
  8
L_Aisle_Misc
 10
-6011.981081624632
 20
-33575.35556905698
 30
0.0
 70
0
  0
VERTEX
  5
678
  8
L_Aisle_Misc
 10
-6014.930904281468
 20
-33573.93379733583
 30
0.0
 70
0
  0
VERTEX
  5
679
  8
L_Aisle_Misc
 10
-6012.963801345685
 20
-33570.32527483486
 30
0.0
 70
0
  0
VERTEX
  5
67A
  8
L_Aisle_Misc
 10
-6010.112545877315
 20
-33571.67901071545
 30
0.0
 70
0
  0
VERTEX
  5
67B
  8
L_Aisle_Misc
 10
-6011.981081624632
 20
-33575.35556905698
 30
0.0
 70
0
  0
SEQEND
  5
676
  8
L_Aisle_Misc
  0
POLYLINE
  5
67C
  8
L_Aisle_Misc
 66
1
 10
0.0
 20
0.0
 30
0.0
 70
0
  0
VERTEX
  5
67E
  8
L_Aisle_Misc
 10
-6024.6053104917
 20
-33578.08084288601
 30
0.0
 70
0
  0
VERTEX
  5
67F
  8
L_Aisle_Misc
 10
-6023.49820712996
 20
-33578.65554544947
 30
0.0
 70
0
  0
VERTEX
  5
680
  8
L_Aisle_Misc
 10
-6020.480804907421
 20
-33581.0968868837
 30
0.0
 70
0
  0
VERTEX
  5
681
  8
L_Aisle_Misc
 10
-6022.173834743597
 20
-33583.2329567683
 30
0.0
 70
0
  0
VERTEX
  5
682
  8
L_Aisle_Misc
 10
-6025.001700463915
 20
-33580.94278274156
 30
0.0
 70
0
  0
VERTEX
  5
683
  8
L_Aisle_Misc
 10
-6026.351583117814
 20
-33580.428331224655
 30
0.0
 70
0
  0
VERTEX
  5
684
  8
L_Aisle_Misc
 10
-6024.825291864536
 20
-33578.08069374203
 30
0.0
 70
0
  0
SEQEND
  5
67D
  8
L_Aisle_Misc
  0
POLYLINE
  5
685
  8
L_Aisle_Misc
 66
1
 10
0.0
 20
0.0
 30
0.0
 70
0
  0
VERTEX
  5
687
  8
L_Aisle_Misc
 10
-6015.279978908879
 20
-33585.34463559551
 30
0.0
 70
0
  0
VERTEX
  5
688
  8
L_Aisle_Misc
 10
-6013.513067329264
 20
-33586.12368817833
 30
0.0
 70
0
  0
VERTEX
  5
689
  8
L_Aisle_Misc
 10
-6012.238977477827
 20
-33586.54746270069
 30
0.0
 70
0
  0
VERTEX
  5
68A
  8
L_Aisle_Misc
 10
-6010.957199764479
 20
-33586.82020210285
 30
0.0
 70
0
  0
VERTEX
  5
68B
  8
L_Aisle_Misc
 10
-6008.507203009989
 20
-33587.033315243585
 30
0.0
 70
0
  0
VERTEX
  5
68C
  8
L_Aisle_Misc
 10
-6006.686665703415
 20
-33587.03454602756
 30
0.0
 70
0
  0
VERTEX
  5
68D
  8
L_Aisle_Misc
 10
-6004.949385970423
 20
-33586.76384789283
 30
0.0
 70
0
  0
VERTEX
  5
68E
  8
L_Aisle_Misc
 10
-6004.2815494811075
 20
-33586.31117871578
 30
0.0
 70
0
  0
VERTEX
  5
68F
  8
L_Aisle_Misc
 10
-6004.3594616297805
 20
-33589.35458552253
 30
0.0
 70
0
  0
VERTEX
  5
690
  8
L_Aisle_Misc
 10
-6006.491212133879
 20
-33589.655225264905
 30
0.0
 70
0
  0
VERTEX
  5
691
  8
L_Aisle_Misc
 10
-6008.653100821534
 20
-33589.65376371673
 30
0.0
 70
0
  0
VERTEX
  5
692
  8
L_Aisle_Misc
 10
-6011.376178966907
 20
-33589.44046574794
 30
0.0
 70
0
  0
VERTEX
  5
693
  8
L_Aisle_Misc
 10
-6012.953753548091
 20
-33589.10710997963
 30
0.0
 70
0
  0
VERTEX
  5
694
  8
L_Aisle_Misc
 10
-6014.447764031195
 20
-33588.592562280115
 30
0.0
 70
0
  0
VERTEX
  5
695
  8
L_Aisle_Misc
 10
-6016.828821060672
 20
-33587.390181015755
 30
0.0
 70
0
  0
VERTEX
  5
696
  8
L_Aisle_Misc
 10
-6015.279978908879
 20
-33585.34463559551
 30
0.0
 70
0
  0
SEQEND
  5
686
  8
L_Aisle_Misc
  0
POLYLINE
  5
697
  8
L_Aisle_Misc
 66
1
 10
0.0
 20
0.0
 30
0.0
 70
0
  0
VERTEX
  5
699
  8
L_Aisle_Misc
 10
-5937.993335461172
 20
-33578.1391411732
 30
0.0
 70
0
  0
VERTEX
  5
69A
  8
L_Aisle_Misc
 10
-5937.89502590167
 20
-33578.59232689285
 30
0.0
 70
0
  0
VERTEX
  5
69B
  8
L_Aisle_Misc
 10
-5941.604912447029
 20
-33579.40546322946
 30
0.0
 70
0
  0
VERTEX
  5
69C
  8
L_Aisle_Misc
 10
-5941.923546599846
 20
-33579.46566618647
 30
0.0
 70
0
  0
VERTEX
  5
69D
  8
L_Aisle_Misc
 10
-5942.165395902155
 20
-33578.1363523235
 30
0.0
 70
0
  0
SEQEND
  5
698
  8
L_Aisle_Misc
  0
POLYLINE
  5
69E
  8
L_Aisle_Misc
 66
1
 10
0.0
 20
0.0
 30
0.0
 70
0
  0
VERTEX
  5
6A0
  8
L_Aisle_Misc
 10
-5942.165395902155
 20
-33578.1363523235
 30
0.0
 70
0
  0
VERTEX
  5
6A1
  8
L_Aisle_Misc
 10
-5944.266877963644
 20
-33567.214761099065
 30
0.0
 70
0
  0
VERTEX
  5
6A2
  8
L_Aisle_Misc
 10
-5943.978586454873
 20
-33567.15453801386
 30
0.0
 70
0
  0
VERTEX
  5
6A3
  8
L_Aisle_Misc
 10
-5940.1931521580445
 20
-33566.79457372603
 30
0.0
 70
0
  0
VERTEX
  5
6A4
  8
L_Aisle_Misc
 10
-5937.993335461172
 20
-33578.1391411732
 30
0.0
 70
0
  0
SEQEND
  5
69F
  8
L_Aisle_Misc
  0
POLYLINE
  5
6A5
  8
L_RoadStructure
 66
1
 10
0.0
 20
0.0
 30
0.0
 70
0
  0
VERTEX
  5
6A7
  8
L_RoadStructure
 10
-6002.429649512457
 20
-33607.26172248454
 30
0.0
 70
0
  0
VERTEX
  5
6A8
  8
L_RoadStructure
 10
-5999.510049082995
 20
-33608.5248823528
 30
0.0
 70
0
  0
SEQEND
  5
6A6
  8
L_RoadStructure
  0
POLYLINE
  5
6A9
  8
L_MapSymbol
 66
1
 10
0.0
 20
0.0
 30
0.0
 70
0
  0
VERTEX
  5
6AB
  8
L_MapSymbol
 10
-6016.267890267153
 20
-33632.80090120775
 30
0.0
 70
0
  0
VERTEX
  5
6AC
  8
L_MapSymbol
 10
-6021.699964250224
 20
-33645.13727435701
 30
0.0
 70
0
  0
VERTEX
  5
6AD
  8
L_MapSymbol
 10
-5998.214731073283
 20
-33656.17161528108
 30
0.0
 70
0
  0
VERTEX
  5
6AE
  8
L_MapSymbol
 10
-5991.925752307673
 20
-33644.1982891755
 30
0.0
 70
0
  0
SEQEND
  5
6AA
  8
L_MapSymbol
  0
POLYLINE
  5
6AF
  8
L_MapSymbol
 66
1
 10
0.0
 20
0.0
 30
0.0
 70
0
  0
VERTEX
  5
6B1
  8
L_MapSymbol
 10
-5954.165550589433
 20
-33600.4596124213
 30
0.0
 70
0
  0
VERTEX
  5
6B2
  8
L_MapSymbol
 10
-5955.188759174345
 20
-33599.19773967679
 30
0.0
 70
0
  0
VERTEX
  5
6B3
  8
L_MapSymbol
 10
-5956.568348050046
 20
-33597.724171637674
 30
0.0
 70
0
  0
VERTEX
  5
6B4
  8
L_MapSymbol
 10
-5957.887186006631
 20
-33596.152468155626
 30
0.0
 70
0
  0
VERTEX
  5
6B5
  8
L_MapSymbol
 10
-5958.751055899025
 20
-33594.83028631326
 30
0.0
 70
0
  0
VERTEX
  5
6B6
  8
L_MapSymbol
 10
-5958.9702932395585
 20
-33593.71999325948
 30
0.0
 70
0
  0
VERTEX
  5
6B7
  8
L_MapSymbol
 10
-5958.8483365555585
 20
-33592.84404152754
 30
0.0
 70
0
  0
VERTEX
  5
6B8
  8
L_MapSymbol
 10
-5958.597546634623
 20
-33592.1494245544
 30
0.0
 70
0
  0
VERTEX
  5
6B9
  8
L_MapSymbol
 10
-5958.210302465822
 20
-33591.58328331782
 30
0.0
 70
0
  0
VERTEX
  5
6BA
  8
L_MapSymbol
 10
-5956.685135973077
 20
-33590.88952076458
 30
0.0
 70
0
  0
VERTEX
  5
6BB
  8
L_MapSymbol
 10
-5954.599001543741
 20
-33590.73987868876
 30
0.0
 70
0
  0
VERTEX
  5
6BC
  8
L_MapSymbol
 10
-5952.710233787427
 20
-33590.80156021847
 30
0.0
 70
0
  0
VERTEX
  5
6BD
  8
L_MapSymbol
 10
-5951.2617530644775
 20
-33591.3462752098
 30
0.0
 70
0
  0
VERTEX
  5
6BE
  8
L_MapSymbol
 10
-5950.200414675156
 20
-33592.30609143931
 30
0.0
 70
0
  0
VERTEX
  5
6BF
  8
L_MapSymbol
 10
-5949.442726677439
 20
-33593.60554494523
 30
0.0
 70
0
  0
VERTEX
  5
6C0
  8
L_MapSymbol
 10
-5948.829260509755
 20
-33595.04839029988
 30
0.0
 70
0
  0
VERTEX
  5
6C1
  8
L_MapSymbol
 10
-5948.36762706898
 20
-33596.67238259065
 30
0.0
 70
0
  0
VERTEX
  5
6C2
  8
L_MapSymbol
 10
-5948.194286004477
 20
-33598.35659832139
 30
0.0
 70
0
  0
VERTEX
  5
6C3
  8
L_MapSymbol
 10
-5948.218170035357
 20
-33600.040682349034
 30
0.0
 70
0
  0
VERTEX
  5
6C4
  8
L_MapSymbol
 10
-5948.3177127681765
 20
-33601.43018727056
 30
0.0
 70
0
  0
VERTEX
  5
6C5
  8
L_MapSymbol
 10
-5948.492600798894
 20
-33602.05688787637
 30
0.0
 70
0
  0
VERTEX
  5
6C6
  8
L_MapSymbol
 10
-5948.690068668826
 20
-33602.41925267418
 30
0.0
 70
0
  0
VERTEX
  5
6C7
  8
L_MapSymbol
 10
-5949.403255246366
 20
-33602.63023180845
 30
0.0
 70
0
  0
VERTEX
  5
6C8
  8
L_MapSymbol
 10
-5950.3817755292785
 20
-33602.599368551724
 30
0.0
 70
0
  0
VERTEX
  5
6C9
  8
L_MapSymbol
 10
-5952.148655425417
 20
-33601.75991096742
 30
0.0
 70
0
  0
VERTEX
  5
6CA
  8
L_MapSymbol
 10
-5954.165550589433
 20
-33600.4596124213
 30
0.0
 70
0
  0
SEQEND
  5
6B0
  8
L_MapSymbol
  0
POLYLINE
  5
6CB
  8
L_MapSymbol
 66
1
 10
0.0
 20
0.0
 30
0.0
 70
0
  0
VERTEX
  5
6CD
  8
L_MapSymbol
 10
-5935.889774782437
 20
-33585.96442224062
 30
0.0
 70
0
  0
VERTEX
  5
6CE
  8
L_MapSymbol
 10
-5934.782241054511
 20
-33585.90474593243
 30
0.0
 70
0
  0
VERTEX
  5
6CF
  8
L_MapSymbol
 10
-5932.324979853558
 20
-33586.60117135384
 30
0.0
 70
0
  0
VERTEX
  5
6D0
  8
L_MapSymbol
 10
-5930.095366071968
 20
-33587.418276361044
 30
0.0
 70
0
  0
VERTEX
  5
6D1
  8
L_MapSymbol
 10
-5928.472532231516
 20
-33588.13679997971
 30
0.0
 70
0
  0
VERTEX
  5
6D2
  8
L_MapSymbol
 10
-5927.471659748151
 20
-33588.771836402404
 30
0.0
 70
0
  0
VERTEX
  5
6D3
  8
L_MapSymbol
 10
-5926.9260223036135
 20
-33589.55760933867
 30
0.0
 70
0
  0
VERTEX
  5
6D4
  8
L_MapSymbol
 10
-5926.6384907422025
 20
-33590.6377385796
 30
0.0
 70
0
  0
VERTEX
  5
6D5
  8
L_MapSymbol
 10
-5926.9278054037495
 20
-33592.23102002984
 30
0.0
 70
0
  0
VERTEX
  5
6D6
  8
L_MapSymbol
 10
-5930.179315657859
 20
-33599.54675346541
 30
0.0
 70
0
  0
VERTEX
  5
6D7
  8
L_MapSymbol
 10
-5931.87274568122
 20
-33602.30966232158
 30
0.0
 70
0
  0
VERTEX
  5
6D8
  8
L_MapSymbol
 10
-5932.882213373221
 20
-33603.18502285147
 30
0.0
 70
0
  0
VERTEX
  5
6D9
  8
L_MapSymbol
 10
-5933.883409842436
 20
-33603.03331392826
 30
0.0
 70
0
  0
VERTEX
  5
6DA
  8
L_MapSymbol
 10
-5934.869092131705
 20
-33602.368077832325
 30
0.0
 70
0
  0
VERTEX
  5
6DB
  8
L_MapSymbol
 10
-5935.998643103389
 20
-33601.31759256041
 30
0.0
 70
0
  0
VERTEX
  5
6DC
  8
L_MapSymbol
 10
-5937.513307590336
 20
-33597.64629978735
 30
0.0
 70
0
  0
VERTEX
  5
6DD
  8
L_MapSymbol
 10
-5938.17939036182
 20
-33595.47842618303
 30
0.0
 70
0
  0
VERTEX
  5
6DE
  8
L_MapSymbol
 10
-5938.693599758873
 20
-33593.06899013762
 30
0.0
 70
0
  0
VERTEX
  5
6DF
  8
L_MapSymbol
 10
-5938.637623952695
 20
-33588.76438127013
 30
0.0
 70
0
  0
VERTEX
  5
6E0
  8
L_MapSymbol
 10
-5938.242190038309
 20
-33587.29200385421
 30
0.0
 70
0
  0
VERTEX
  5
6E1
  8
L_MapSymbol
 10
-5937.33896198521
 20
-33586.47699056483
 30
0.0
 70
0
  0
VERTEX
  5
6E2
  8
L_MapSymbol
 10
-5935.889774782437
 20
-33585.96442224062
 30
0.0
 70
0
  0
SEQEND
  5
6CC
  8
L_MapSymbol
  0
POLYLINE
  5
6E3
  8
L_GardenRoad
 66
1
 10
0.0
 20
0.0
 30
0.0
 70
0
  0
VERTEX
  5
6E5
  8
L_GardenRoad
 10
-6024.61987553297
 20
-33532.432882821224
 30
0.0
 70
0
  0
VERTEX
  5
6E6
  8
L_GardenRoad
 10
-6021.92028312139
 20
-33533.69589041988
 30
0.0
 70
0
  0
VERTEX
  5
6E7
  8
L_GardenRoad
 10
-6021.753462951301
 20
-33533.78662702571
 30
0.0
 70
0
  0
VERTEX
  5
6E8
  8
L_GardenRoad
 10
-6021.406099753328
 20
-33536.105315374785
 30
0.0
 70
0
  0
VERTEX
  5
6E9
  8
L_GardenRoad
 10
-6020.891383940748
 20
-33537.729336774064
 30
0.0
 70
0
  0
VERTEX
  5
6EA
  8
L_GardenRoad
 10
-6020.088300076896
 20
-33539.17985854139
 30
0.0
 70
0
  0
VERTEX
  5
6EB
  8
L_GardenRoad
 10
-6019.300238662173
 20
-33540.41136320086
 30
0.0
 70
0
  0
VERTEX
  5
6EC
  8
L_GardenRoad
 10
-6016.161622906528
 20
-33543.06423007901
 30
0.0
 70
0
  0
SEQEND
  5
6E4
  8
L_GardenRoad
  0
POLYLINE
  5
6ED
  8
L_GardenRoad
 66
1
 10
0.0
 20
0.0
 30
0.0
 70
0
  0
VERTEX
  5
6EF
  8
L_GardenRoad
 10
-6021.92028312139
 20
-33533.69589041988
 30
0.0
 70
0
  0
VERTEX
  5
6F0
  8
L_GardenRoad
 10
-6033.0570312804575
 20
-33557.79423468339
 30
0.0
 70
0
  0
VERTEX
  5
6F1
  8
L_GardenRoad
 10
-6031.390358620423
 20
-33560.95964764526
 30
0.0
 70
0
  0
VERTEX
  5
6F2
  8
L_GardenRoad
 10
-6025.430008533677
 20
-33563.7541504193
 30
0.0
 70
0
  0
SEQEND
  5
6EE
  8
L_GardenRoad
  0
POLYLINE
  5
6F3
  8
L_GardenRoad
 66
1
 10
0.0
 20
0.0
 30
0.0
 70
0
  0
VERTEX
  5
6F5
  8
L_GardenRoad
 10
-6019.854451635005
 20
-33529.90620552463
 30
0.0
 70
0
  0
VERTEX
  5
6F6
  8
L_GardenRoad
 10
-6017.3789833613455
 20
-33526.08659133658
 30
0.0
 70
0
  0
VERTEX
  5
6F7
  8
L_GardenRoad
 10
-6016.29340011273
 20
-33524.82614972669
 30
0.0
 70
0
  0
VERTEX
  5
6F8
  8
L_GardenRoad
 10
-6014.96513682789
 20
-33523.64894394311
 30
0.0
 70
0
  0
VERTEX
  5
6F9
  8
L_GardenRoad
 10
-6012.908321879472
 20
-33521.966250257676
 30
0.0
 70
0
  0
VERTEX
  5
6FA
  8
L_GardenRoad
 10
-6011.625919981735
 20
-33521.30254607677
 30
0.0
 70
0
  0
VERTEX
  5
6FB
  8
L_GardenRoad
 10
-6004.850165969053
 20
-33518.51290544438
 30
0.0
 70
0
  0
SEQEND
  5
6F4
  8
L_GardenRoad
  0
POLYLINE
  5
6FC
  8
L_GardenRoad
 66
1
 10
0.0
 20
0.0
 30
0.0
 70
0
  0
VERTEX
  5
6FE
  8
L_GardenRoad
 10
-5972.840329002975
 20
-33520.06752479487
 30
0.0
 70
0
  0
VERTEX
  5
6FF
  8
L_GardenRoad
 10
-5969.055902778434
 20
-33521.18020464597
 30
0.0
 70
0
  0
VERTEX
  5
700
  8
L_GardenRoad
 10
-5965.8710812806
 20
-33522.813565275894
 30
0.0
 70
0
  0
VERTEX
  5
701
  8
L_GardenRoad
 10
-5964.589894299725
 20
-33523.95477042229
 30
0.0
 70
0
  0
VERTEX
  5
702
  8
L_GardenRoad
 10
-5963.07379914628
 20
-33525.45862704562
 30
0.0
 70
0
  0
VERTEX
  5
703
  8
L_GardenRoad
 10
-5961.701772644848
 20
-33526.87931547759
 30
0.0
 70
0
  0
VERTEX
  5
704
  8
L_GardenRoad
 10
-5960.155111545736
 20
-33528.05090643528
 30
0.0
 70
0
  0
VERTEX
  5
705
  8
L_GardenRoad
 10
-5957.501064982939
 20
-33529.374278949
 30
0.0
 70
0
  0
VERTEX
  5
706
  8
L_GardenRoad
 10
-5952.2766379071645
 20
-33532.36080441042
 30
0.0
 70
0
  0
VERTEX
  5
707
  8
L_GardenRoad
 10
-5950.235787712338
 20
-33531.848637839765
 30
0.0
 70
0
  0
VERTEX
  5
708
  8
L_GardenRoad
 10
-5946.525258172824
 20
-33530.046203113976
 30
0.0
 70
0
  0
VERTEX
  5
709
  8
L_GardenRoad
 10
-5944.809742601468
 20
-33528.27264059774
 30
0.0
 70
0
  0
VERTEX
  5
70A
  8
L_GardenRoad
 10
-5943.678090529177
 20
-33526.16640149575
 30
0.0
 70
0
  0
VERTEX
  5
70B
  8
L_GardenRoad
 10
-5943.73098711428
 20
-33525.86428785992
 30
0.0
 70
0
  0
SEQEND
  5
6FD
  8
L_GardenRoad
  0
POLYLINE
  5
70C
  8
L_GardenRoad
 66
1
 10
0.0
 20
0.0
 30
0.0
 70
0
  0
VERTEX
  5
70E
  8
L_GardenRoad
 10
-5971.409420900586
 20
-33512.87903161495
 30
0.0
 70
0
  0
VERTEX
  5
70F
  8
L_GardenRoad
 10
-5971.310667191888
 20
-33512.66764350932
 30
0.0
 70
0
  0
VERTEX
  5
710
  8
L_GardenRoad
 10
-5970.353396278379
 20
-33510.4404631835
 30
0.0
 70
0
  0
VERTEX
  5
711
  8
L_GardenRoad
 10
-5979.089328778718
 20
-33506.61330688181
 30
0.0
 70
0
  0
VERTEX
  5
712
  8
L_GardenRoad
 10
-5993.223267372732
 20
-33498.538316995015
 30
0.0
 70
0
  0
VERTEX
  5
713
  8
L_GardenRoad
 10
-5977.714467878745
 20
-33503.812462533075
 30
0.0
 70
0
  0
VERTEX
  5
714
  8
L_GardenRoad
 10
-5968.022784293272
 20
-33507.670466008065
 30
0.0
 70
0
  0
VERTEX
  5
715
  8
L_GardenRoad
 10
-5969.146834001635
 20
-33509.74649501053
 30
0.0
 70
0
  0
VERTEX
  5
716
  8
L_GardenRoad
 10
-5962.329242608171
 20
-33512.40180435875
 30
0.0
 70
0
  0
SEQEND
  5
70D
  8
L_GardenRoad
  0
POLYLINE
  5
717
  8
L_GardenRoad
 66
1
 10
0.0
 20
0.0
 30
0.0
 70
0
  0
VERTEX
  5
719
  8
L_GardenRoad
 10
-5964.1232595844895
 20
-33518.11742456868
 30
0.0
 70
0
  0
VERTEX
  5
71A
  8
L_GardenRoad
 10
-5964.344653685226
 20
-33520.224270202
 30
0.0
 70
0
  0
VERTEX
  5
71B
  8
L_GardenRoad
 10
-5964.299667756231
 20
-33521.00970338872
 30
0.0
 70
0
  0
VERTEX
  5
71C
  8
L_GardenRoad
 10
-5964.050253022138
 20
-33522.3616703353
 30
0.0
 70
0
  0
VERTEX
  5
71D
  8
L_GardenRoad
 10
-5963.754742241283
 20
-33522.84519369244
 30
0.0
 70
0
  0
VERTEX
  5
71E
  8
L_GardenRoad
 10
-5962.678242358069
 20
-33523.80501427899
 30
0.0
 70
0
  0
VERTEX
  5
71F
  8
L_GardenRoad
 10
-5961.700095589816
 20
-33524.37961914092
 30
0.0
 70
0
  0
VERTEX
  5
720
  8
L_GardenRoad
 10
-5959.045726236082
 20
-33525.21966661797
 30
0.0
 70
0
  0
VERTEX
  5
721
  8
L_GardenRoad
 10
-5956.466953410014
 20
-33525.67451293422
 30
0.0
 70
0
  0
VERTEX
  5
722
  8
L_GardenRoad
 10
-5953.59974840627
 20
-33525.857681350906
 30
0.0
 70
0
  0
VERTEX
  5
723
  8
L_GardenRoad
 10
-5950.967249347781
 20
-33525.37611952598
 30
0.0
 70
0
  0
VERTEX
  5
724
  8
L_GardenRoad
 10
-5949.297145774485
 20
-33523.45148929641
 30
0.0
 70
0
  0
SEQEND
  5
718
  8
L_GardenRoad
  0
POLYLINE
  5
725
  8
L_GardenRoad
 66
1
 10
0.0
 20
0.0
 30
0.0
 70
0
  0
VERTEX
  5
727
  8
L_GardenRoad
 10
-5946.889175692046
 20
-33518.43105298464
 30
0.0
 70
0
  0
VERTEX
  5
728
  8
L_GardenRoad
 10
-5952.903278746926
 20
-33516.62211021895
 30
0.0
 70
0
  0
SEQEND
  5
726
  8
L_GardenRoad
  0
POLYLINE
  5
729
  8
L_GardenRoad
 66
1
 10
0.0
 20
0.0
 30
0.0
 70
0
  0
VERTEX
  5
72B
  8
L_GardenRoad
 10
-5951.597017869575
 20
-33514.30453732945
 30
0.0
 70
0
  0
VERTEX
  5
72C
  8
L_GardenRoad
 10
-5945.909254820445
 20
-33516.354922730876
 30
0.0
 70
0
  0
VERTEX
  5
72D
  8
L_GardenRoad
 10
-5922.270489567309
 20
-33524.28515384907
 30
0.0
 70
0
  0
SEQEND
  5
72A
  8
L_GardenRoad
  0
POLYLINE
  5
72E
  8
L_GardenRoad
 66
1
 10
0.0
 20
0.0
 30
0.0
 70
0
  0
VERTEX
  5
730
  8
L_GardenRoad
 10
-5932.953753435983
 20
-33528.55243487062
 30
0.0
 70
0
  0
VERTEX
  5
731
  8
L_GardenRoad
 10
-5933.514920702891
 20
-33528.310397509245
 30
0.0
 70
0
  0
VERTEX
  5
732
  8
L_GardenRoad
 10
-5940.142531408727
 20
-33525.111491790296
 30
0.0
 70
0
  0
VERTEX
  5
733
  8
L_GardenRoad
 10
-5942.698028140909
 20
-33523.87881445552
 30
0.0
 70
0
  0
SEQEND
  5
72F
  8
L_GardenRoad
  0
POLYLINE
  5
734
  8
L_GardenRoad
 66
1
 10
0.0
 20
0.0
 30
0.0
 70
0
  0
VERTEX
  5
736
  8
L_GardenRoad
 10
-5940.142531408727
 20
-33525.111491790296
 30
0.0
 70
0
  0
VERTEX
  5
737
  8
L_GardenRoad
 10
-5941.319458317651
 20
-33526.86275883611
 30
0.0
 70
0
  0
VERTEX
  5
738
  8
L_GardenRoad
 10
-5942.155092748732
 20
-33528.69732583729
 30
0.0
 70
0
  0
VERTEX
  5
739
  8
L_GardenRoad
 10
-5943.537526733335
 20
-33531.49062641752
 30
0.0
 70
0
  0
VERTEX
  5
73A
  8
L_GardenRoad
 10
-5940.784809307427
 20
-33532.73098885072
 30
0.0
 70
0
  0
VERTEX
  5
73B
  8
L_GardenRoad
 10
-5939.7529960897
 20
-33532.459807980944
 30
0.0
 70
0
  0
VERTEX
  5
73C
  8
L_GardenRoad
 10
-5936.148302533726
 20
-33530.113556938806
 30
0.0
 70
0
  0
VERTEX
  5
73D
  8
L_GardenRoad
 10
-5933.514920702891
 20
-33528.310397509245
 30
0.0
 70
0
  0
SEQEND
  5
735
  8
L_GardenRoad
  0
POLYLINE
  5
73E
  8
L_GardenRoad
 66
1
 10
0.0
 20
0.0
 30
0.0
 70
0
  0
VERTEX
  5
740
  8
L_GardenRoad
 10
-5927.549204390811
 20
-33523.073321500146
 30
0.0
 70
0
  0
VERTEX
  5
741
  8
L_GardenRoad
 10
-5928.9463051097655
 20
-33525.11896916235
 30
0.0
 70
0
  0
VERTEX
  5
742
  8
L_GardenRoad
 10
-5932.559185282042
 20
-33528.37145130026
 30
0.0
 70
0
  0
SEQEND
  5
73F
  8
L_GardenRoad
  0
POLYLINE
  5
743
  8
L_GardenRoad
 66
1
 10
0.0
 20
0.0
 30
0.0
 70
0
  0
VERTEX
  5
745
  8
L_GardenRoad
 10
-5947.369869474757
 20
-33533.95755387522
 30
0.0
 70
0
  0
VERTEX
  5
746
  8
L_GardenRoad
 10
-5946.337853764957
 20
-33533.384295356744
 30
0.0
 70
0
  0
VERTEX
  5
747
  8
L_GardenRoad
 10
-5943.736543606979
 20
-33534.17143984396
 30
0.0
 70
0
  0
VERTEX
  5
748
  8
L_GardenRoad
 10
-5940.984082877239
 20
-33535.79695272416
 30
0.0
 70
0
  0
VERTEX
  5
749
  8
L_GardenRoad
 10
-5941.842434263115
 20
-33537.571090669175
 30
0.0
 70
0
  0
VERTEX
  5
74A
  8
L_GardenRoad
 10
-5943.739301646056
 20
-33538.29481086887
 30
0.0
 70
0
  0
VERTEX
  5
74B
  8
L_GardenRoad
 10
-5944.763429088235
 20
-33538.41495725931
 30
0.0
 70
0
  0
VERTEX
  5
74C
  8
L_GardenRoad
 10
-5945.946731425655
 20
-33538.353749824935
 30
0.0
 70
0
  0
VERTEX
  5
74D
  8
L_GardenRoad
 10
-5946.704981245415
 20
-33537.90012443215
 30
0.0
 70
0
  0
VERTEX
  5
74E
  8
L_GardenRoad
 10
-5947.690599741473
 20
-33537.15182014775
 30
0.0
 70
0
  0
VERTEX
  5
74F
  8
L_GardenRoad
 10
-5948.494220991943
 20
-33536.48670926858
 30
0.0
 70
0
  0
VERTEX
  5
750
  8
L_GardenRoad
 10
-5948.326712503247
 20
-33535.55037776603
 30
0.0
 70
0
  0
VERTEX
  5
751
  8
L_GardenRoad
 10
-5947.9771362324245
 20
-33534.59151233447
 30
0.0
 70
0
  0
VERTEX
  5
752
  8
L_GardenRoad
 10
-5947.369869474757
 20
-33533.95755387522
 30
0.0
 70
0
  0
SEQEND
  5
744
  8
L_GardenRoad
  0
POLYLINE
  5
753
  8
L_GardenRoad
 66
1
 10
0.0
 20
0.0
 30
0.0
 70
0
  0
VERTEX
  5
755
  8
L_GardenRoad
 10
-5937.3044608242935
 20
-33534.840312596396
 30
0.0
 70
0
  0
VERTEX
  5
756
  8
L_GardenRoad
 10
-5933.520507983479
 20
-33536.677967444775
 30
0.0
 70
0
  0
VERTEX
  5
757
  8
L_GardenRoad
 10
-5933.839700313503
 20
-33537.57643822326
 30
0.0
 70
0
  0
VERTEX
  5
758
  8
L_GardenRoad
 10
-5934.477671598999
 20
-33538.754118967496
 30
0.0
 70
0
  0
VERTEX
  5
759
  8
L_GardenRoad
 10
-5935.266945117048
 20
-33539.319989375406
 30
0.0
 70
0
  0
VERTEX
  5
75A
  8
L_GardenRoad
 10
-5936.056102700194
 20
-33539.71216456494
 30
0.0
 70
0
  0
VERTEX
  5
75B
  8
L_GardenRoad
 10
-5936.6175934920375
 20
-33539.95345243567
 30
0.0
 70
0
  0
VERTEX
  5
75C
  8
L_GardenRoad
 10
-5937.376207228723
 20
-33540.04356920821
 30
0.0
 70
0
  0
VERTEX
  5
75D
  8
L_GardenRoad
 10
-5937.967676860303
 20
-33539.74109526978
 30
0.0
 70
0
  0
VERTEX
  5
75E
  8
L_GardenRoad
 10
-5938.528683201513
 20
-33539.25739443696
 30
0.0
 70
0
  0
VERTEX
  5
75F
  8
L_GardenRoad
 10
-5938.755608151149
 20
-33538.29814295997
 30
0.0
 70
0
  0
VERTEX
  5
760
  8
L_GardenRoad
 10
-5938.656133215158
 20
-33537.0068232293
 30
0.0
 70
0
  0
VERTEX
  5
761
  8
L_GardenRoad
 10
-5937.3044608242935
 20
-33534.840312596396
 30
0.0
 70
0
  0
SEQEND
  5
754
  8
L_GardenRoad
  0
POLYLINE
  5
762
  8
L_GardenRoad
 66
1
 10
0.0
 20
0.0
 30
0.0
 70
0
  0
VERTEX
  5
764
  8
L_GardenRoad
 10
-6037.145559315888
 20
-33568.83624036102
 30
0.0
 70
0
  0
VERTEX
  5
765
  8
L_GardenRoad
 10
-6035.567291640953
 20
-33568.14252917589
 30
0.0
 70
0
  0
VERTEX
  5
766
  8
L_GardenRoad
 10
-6033.973509525257
 20
-33566.94284488537
 30
0.0
 70
0
  0
VERTEX
  5
767
  8
L_GardenRoad
 10
-6033.5101753582
 20
-33566.036920611776
 30
0.0
 70
0
  0
VERTEX
  5
768
  8
L_GardenRoad
 10
-6022.809855444125
 20
-33570.31860692516
 30
0.0
 70
0
  0
VERTEX
  5
769
  8
L_GardenRoad
 10
-6014.930904281468
 20
-33573.93379733583
 30
0.0
 70
0
  0
SEQEND
  5
763
  8
L_GardenRoad
  0
POLYLINE
  5
76A
  8
L_GardenRoad
 66
1
 10
0.0
 20
0.0
 30
0.0
 70
0
  0
VERTEX
  5
76C
  8
L_GardenRoad
 10
-6025.430008533677
 20
-33563.7541504193
 30
0.0
 70
0
  0
VERTEX
  5
76D
  8
L_GardenRoad
 10
-6021.130366668957
 20
-33565.77344593164
 30
0.0
 70
0
  0
SEQEND
  5
76B
  8
L_GardenRoad
  0
POLYLINE
  5
76E
  8
L_GardenRoad
 66
1
 10
0.0
 20
0.0
 30
0.0
 70
0
  0
VERTEX
  5
770
  8
L_GardenRoad
 10
-6037.479730303124
 20
-33591.76389229297
 30
0.0
 70
0
  0
VERTEX
  5
771
  8
L_GardenRoad
 10
-6034.557180797903
 20
-33588.669553077605
 30
0.0
 70
0
  0
VERTEX
  5
772
  8
L_GardenRoad
 10
-6026.351583117814
 20
-33580.428331224655
 30
0.0
 70
0
  0
VERTEX
  5
773
  8
L_GardenRoad
 10
-6025.001700463915
 20
-33580.94278274156
 30
0.0
 70
0
  0
VERTEX
  5
774
  8
L_GardenRoad
 10
-6022.173834743597
 20
-33583.2329567683
 30
0.0
 70
0
  0
VERTEX
  5
775
  8
L_GardenRoad
 10
-6021.56727581221
 20
-33583.65628008444
 30
0.0
 70
0
  0
VERTEX
  5
776
  8
L_GardenRoad
 10
-6024.586613969226
 20
-33584.06959387422
 30
0.0
 70
0
  0
VERTEX
  5
777
  8
L_GardenRoad
 10
-6028.736822283087
 20
-33585.39593225588
 30
0.0
 70
0
  0
VERTEX
  5
778
  8
L_GardenRoad
 10
-6031.923905145949
 20
-33587.07786708584
 30
0.0
 70
0
  0
VERTEX
  5
779
  8
L_GardenRoad
 10
-6034.557180797903
 20
-33588.669553077605
 30
0.0
 70
0
  0
SEQEND
  5
76F
  8
L_GardenRoad
  0
POLYLINE
  5
77A
  8
L_GardenRoad
 66
1
 10
0.0
 20
0.0
 30
0.0
 70
0
  0
VERTEX
  5
77C
  8
L_GardenRoad
 10
-6035.462623582136
 20
-33592.73192009768
 30
0.0
 70
0
  0
VERTEX
  5
77D
  8
L_GardenRoad
 10
-6032.661869185355
 20
-33590.26431406923
 30
0.0
 70
0
  0
VERTEX
  5
77E
  8
L_GardenRoad
 10
-6030.749489396097
 20
-33589.064842512875
 30
0.0
 70
0
  0
VERTEX
  5
77F
  8
L_GardenRoad
 10
-6027.8734964768255
 20
-33587.50352800653
 30
0.0
 70
0
  0
VERTEX
  5
780
  8
L_GardenRoad
 10
-6024.072305509685
 20
-33586.297784425165
 30
0.0
 70
0
  0
VERTEX
  5
781
  8
L_GardenRoad
 10
-6019.475183167675
 20
-33585.908195292395
 30
0.0
 70
0
  0
VERTEX
  5
782
  8
L_GardenRoad
 10
-6030.60167812497
 20
-33594.81202401638
 30
0.0
 70
0
  0
SEQEND
  5
77B
  8
L_GardenRoad
  0
POLYLINE
  5
783
  8
L_GardenRoad
 66
1
 10
0.0
 20
0.0
 30
0.0
 70
0
  0
VERTEX
  5
785
  8
L_GardenRoad
 10
-6028.690706600289
 20
-33595.68935440308
 30
0.0
 70
0
  0
VERTEX
  5
786
  8
L_GardenRoad
 10
-6010.81610822939
 20
-33591.306191253876
 30
0.0
 70
0
  0
VERTEX
  5
787
  8
L_GardenRoad
 10
-6011.897515960841
 20
-33597.596287496875
 30
0.0
 70
0
  0
VERTEX
  5
788
  8
L_GardenRoad
 10
-6011.87557157833
 20
-33598.797073096
 30
0.0
 70
0
  0
VERTEX
  5
789
  8
L_GardenRoad
 10
-6011.3835458190315
 20
-33600.330465701445
 30
0.0
 70
0
  0
VERTEX
  5
78A
  8
L_GardenRoad
 10
-6010.868482176359
 20
-33601.44851301317
 30
0.0
 70
0
  0
VERTEX
  5
78B
  8
L_GardenRoad
 10
-6010.307312381751
 20
-33601.69055722627
 30
0.0
 70
0
  0
VERTEX
  5
78C
  8
L_GardenRoad
 10
-6009.844509998916
 20
-33601.57003790825
 30
0.0
 70
0
  0
VERTEX
  5
78D
  8
L_GardenRoad
 10
-6008.463586389223
 20
-33601.05743437017
 30
0.0
 70
0
  0
VERTEX
  5
78E
  8
L_GardenRoad
 10
-6006.3993529721465
 20
-33599.646602288565
 30
0.0
 70
0
  0
VERTEX
  5
78F
  8
L_GardenRoad
 10
-6004.6839906265195
 20
-33598.13735798862
 30
0.0
 70
0
  0
VERTEX
  5
790
  8
L_GardenRoad
 10
-6003.408618031642
 20
-33596.66557645611
 30
0.0
 70
0
  0
VERTEX
  5
791
  8
L_GardenRoad
 10
-6002.2539417902035
 20
-33594.196847566855
 30
0.0
 70
0
  0
VERTEX
  5
792
  8
L_GardenRoad
 10
-6001.926828490427
 20
-33592.815050072764
 30
0.0
 70
0
  0
VERTEX
  5
793
  8
L_GardenRoad
 10
-6001.538235021286
 20
-33590.25518056878
 30
0.0
 70
0
  0
VERTEX
  5
794
  8
L_GardenRoad
 10
-6001.2871205185775
 20
-33589.084788592176
 30
0.0
 70
0
  0
VERTEX
  5
795
  8
L_GardenRoad
 10
-6001.538235021286
 20
-33590.25518056878
 30
0.0
 70
0
  0
VERTEX
  5
796
  8
L_GardenRoad
 10
-6001.926828490427
 20
-33592.815050072764
 30
0.0
 70
0
  0
VERTEX
  5
797
  8
L_GardenRoad
 10
-6002.2539417902035
 20
-33594.196847566855
 30
0.0
 70
0
  0
VERTEX
  5
798
  8
L_GardenRoad
 10
-6003.408618031642
 20
-33596.66557645611
 30
0.0
 70
0
  0
VERTEX
  5
799
  8
L_GardenRoad
 10
-6004.6839906265195
 20
-33598.13735798862
 30
0.0
 70
0
  0
VERTEX
  5
79A
  8
L_GardenRoad
 10
-6006.3993529721465
 20
-33599.646602288565
 30
0.0
 70
0
  0
VERTEX
  5
79B
  8
L_GardenRoad
 10
-6008.463586389223
 20
-33601.05743437017
 30
0.0
 70
0
  0
VERTEX
  5
79C
  8
L_GardenRoad
 10
-6009.844509998916
 20
-33601.57003790825
 30
0.0
 70
0
  0
VERTEX
  5
79D
  8
L_GardenRoad
 10
-6010.307312381751
 20
-33601.69055722627
 30
0.0
 70
0
  0
VERTEX
  5
79E
  8
L_GardenRoad
 10
-6010.868482176359
 20
-33601.44851301317
 30
0.0
 70
0
  0
VERTEX
  5
79F
  8
L_GardenRoad
 10
-6011.3835458190315
 20
-33600.330465701445
 30
0.0
 70
0
  0
VERTEX
  5
7A0
  8
L_GardenRoad
 10
-6011.87557157833
 20
-33598.797073096
 30
0.0
 70
0
  0
VERTEX
  5
7A1
  8
L_GardenRoad
 10
-6011.897515960841
 20
-33597.596287496875
 30
0.0
 70
0
  0
VERTEX
  5
7A2
  8
L_GardenRoad
 10
-6010.81610822939
 20
-33591.306191253876
 30
0.0
 70
0
  0
VERTEX
  5
7A3
  8
L_GardenRoad
 10
-6028.690706600289
 20
-33595.68935440308
 30
0.0
 70
0
  0
SEQEND
  5
784
  8
L_GardenRoad
  0
POLYLINE
  5
7A4
  8
L_GardenRoad
 66
1
 10
0.0
 20
0.0
 30
0.0
 70
0
  0
VERTEX
  5
7A6
  8
L_GardenRoad
 10
-6028.690706600289
 20
-33595.68935440308
 30
0.0
 70
0
  0
VERTEX
  5
7A7
  8
L_GardenRoad
 10
-6017.784173592357
 20
-33586.75516542935
 30
0.0
 70
0
  0
VERTEX
  5
7A8
  8
L_GardenRoad
 10
-6016.828821060672
 20
-33587.390181015755
 30
0.0
 70
0
  0
SEQEND
  5
7A5
  8
L_GardenRoad
  0
POLYLINE
  5
7A9
  8
L_GardenRoad
 66
1
 10
0.0
 20
0.0
 30
0.0
 70
0
  0
VERTEX
  5
7AB
  8
L_GardenRoad
 10
-6015.279978908879
 20
-33585.34463559551
 30
0.0
 70
0
  0
VERTEX
  5
7AC
  8
L_GardenRoad
 10
-6016.334025550356
 20
-33584.830385601184
 30
0.0
 70
0
  0
VERTEX
  5
7AD
  8
L_GardenRoad
 10
-6018.669199621492
 20
-33583.08429105836
 30
0.0
 70
0
  0
VERTEX
  5
7AE
  8
L_GardenRoad
 10
-6020.480804907421
 20
-33581.0968868837
 30
0.0
 70
0
  0
SEQEND
  5
7AA
  8
L_GardenRoad
  0
POLYLINE
  5
7AF
  8
L_GardenRoad
 66
1
 10
0.0
 20
0.0
 30
0.0
 70
0
  0
VERTEX
  5
7B1
  8
L_GardenRoad
 10
-6016.671628170154
 20
-33579.29453829024
 30
0.0
 70
0
  0
VERTEX
  5
7B2
  8
L_GardenRoad
 10
-6008.671277029176
 20
-33582.8796009198
 30
0.0
 70
0
  0
VERTEX
  5
7B3
  8
L_GardenRoad
 10
-6005.365352231363
 20
-33584.928429117266
 30
0.0
 70
0
  0
VERTEX
  5
7B4
  8
L_GardenRoad
 10
-6004.2815494811075
 20
-33586.31117871578
 30
0.0
 70
0
  0
SEQEND
  5
7B0
  8
L_GardenRoad
  0
POLYLINE
  5
7B5
  8
L_GardenRoad
 66
1
 10
0.0
 20
0.0
 30
0.0
 70
0
  0
VERTEX
  5
7B7
  8
L_GardenRoad
 10
-6011.802730141211
 20
-33603.25281399495
 30
0.0
 70
0
  0
VERTEX
  5
7B8
  8
L_GardenRoad
 10
-6011.120150010422
 20
-33603.434524273034
 30
0.0
 70
0
  0
VERTEX
  5
7B9
  8
L_GardenRoad
 10
-6009.132869441247
 20
-33603.64732494862
 30
0.0
 70
0
  0
VERTEX
  5
7BA
  8
L_GardenRoad
 10
-6007.334554536175
 20
-33602.86313059006
 30
0.0
 70
0
  0
VERTEX
  5
7BB
  8
L_GardenRoad
 10
-6003.756903152486
 20
-33606.92853677511
 30
0.0
 70
0
  0
SEQEND
  5
7B6
  8
L_GardenRoad
  0
POLYLINE
  5
7BC
  8
L_GardenRoad
 66
1
 10
0.0
 20
0.0
 30
0.0
 70
0
  0
VERTEX
  5
7BE
  8
L_GardenRoad
 10
-5997.280660201543
 20
-33609.67429524632
 30
0.0
 70
0
  0
VERTEX
  5
7BF
  8
L_GardenRoad
 10
-6005.08047713104
 20
-33601.15034545127
 30
0.0
 70
0
  0
VERTEX
  5
7C0
  8
L_GardenRoad
 10
-6003.258860441652
 20
-33599.5581002232
 30
0.0
 70
0
  0
VERTEX
  5
7C1
  8
L_GardenRoad
 10
-6001.740545246466
 20
-33597.78440165674
 30
0.0
 70
0
  0
VERTEX
  5
7C2
  8
L_GardenRoad
 10
-6000.388338297477
 20
-33594.86268474446
 30
0.0
 70
0
  0
VERTEX
  5
7C3
  8
L_GardenRoad
 10
-5999.96999437173
 20
-33593.178868151495
 30
0.0
 70
0
  0
VERTEX
  5
7C4
  8
L_GardenRoad
 10
-5999.551038754517
 20
-33590.588810912406
 30
0.0
 70
0
  0
VERTEX
  5
7C5
  8
L_GardenRoad
 10
-5999.322518074172
 20
-33589.1767392747
 30
0.0
 70
0
  0
VERTEX
  5
7C6
  8
L_GardenRoad
 10
-5995.150493169986
 20
-33589.239971005096
 30
0.0
 70
0
  0
VERTEX
  5
7C7
  8
L_GardenRoad
 10
-5990.387037808383
 20
-33589.66609596163
 30
0.0
 70
0
  0
VERTEX
  5
7C8
  8
L_GardenRoad
 10
-5984.281235329978
 20
-33590.53869109318
 30
0.0
 70
0
  0
VERTEX
  5
7C9
  8
L_GardenRoad
 10
-5978.456524747596
 20
-33592.04546199187
 30
0.0
 70
0
  0
VERTEX
  5
7CA
  8
L_GardenRoad
 10
-5976.05216113863
 20
-33592.43978389359
 30
0.0
 70
0
  0
VERTEX
  5
7CB
  8
L_GardenRoad
 10
-5972.594716748157
 20
-33594.79078452101
 30
0.0
 70
0
  0
VERTEX
  5
7CC
  8
L_GardenRoad
 10
-5963.906108849349
 20
-33601.44994710771
 30
0.0
 70
0
  0
VERTEX
  5
7CD
  8
L_GardenRoad
 10
-5956.796075335424
 20
-33609.27861211939
 30
0.0
 70
0
  0
VERTEX
  5
7CE
  8
L_GardenRoad
 10
-5953.779975145674
 20
-33613.70612202645
 30
0.0
 70
0
  0
VERTEX
  5
7CF
  8
L_GardenRoad
 10
-5952.432921162232
 20
-33618.45725272315
 30
0.0
 70
0
  0
VERTEX
  5
7D0
  8
L_GardenRoad
 10
-5952.086305397625
 20
-33621.923869278486
 30
0.0
 70
0
  0
VERTEX
  5
7D1
  8
L_GardenRoad
 10
-5952.239327582159
 20
-33623.879744621
 30
0.0
 70
0
  0
VERTEX
  5
7D2
  8
L_GardenRoad
 10
-5953.340348101599
 20
-33625.532903722844
 30
0.0
 70
0
  0
VERTEX
  5
7D3
  8
L_GardenRoad
 10
-5955.503151464851
 20
-33626.88326980802
 30
0.0
 70
0
  0
VERTEX
  5
7D4
  8
L_GardenRoad
 10
-5958.135822609694
 20
-33627.576292877005
 30
0.0
 70
0
  0
SEQEND
  5
7BD
  8
L_GardenRoad
  0
POLYLINE
  5
7D5
  8
L_RailwayTrack
 66
1
 10
0.0
 20
0.0
 30
0.0
 70
0
  0
VERTEX
  5
7D7
  8
L_RailwayTrack
 10
-5768.670445291123
 20
-33563.92454109724
 30
0.0
 70
0
  0
VERTEX
  5
7D8
  8
L_RailwayTrack
 10
-5772.52164173268
 20
-33560.43679842644
 30
0.0
 70
0
  0
VERTEX
  5
7D9
  8
L_RailwayTrack
 10
-5779.22245389609
 20
-33553.03150077922
 30
0.0
 70
0
  0
VERTEX
  5
7DA
  8
L_RailwayTrack
 10
-5815.720701419936
 20
-33513.06536177777
 30
0.0
 70
0
  0
VERTEX
  5
7DB
  8
L_RailwayTrack
 10
-5815.9708304410005
 20
-33512.770672214145
 30
0.0
 70
0
  0
VERTEX
  5
7DC
  8
L_RailwayTrack
 10
-5827.8186296915865
 20
-33500.03033972669
 30
0.0
 70
0
  0
VERTEX
  5
7DD
  8
L_RailwayTrack
 10
-5844.913907601376
 20
-33484.78687304523
 30
0.0
 70
0
  0
VERTEX
  5
7DE
  8
L_RailwayTrack
 10
-5860.402620591564
 20
-33471.9912776606
 30
0.0
 70
0
  0
VERTEX
  5
7DF
  8
L_RailwayTrack
 10
-5875.247733013253
 20
-33461.023658959195
 30
0.0
 70
0
  0
VERTEX
  5
7E0
  8
L_RailwayTrack
 10
-5891.609804685271
 20
-33449.91153716278
 30
0.0
 70
0
  0
VERTEX
  5
7E1
  8
L_RailwayTrack
 10
-5906.429572730049
 20
-33440.869640339435
 30
0.0
 70
0
  0
SEQEND
  5
7D6
  8
L_RailwayTrack
  0
POLYLINE
  5
7E2
  8
L_RailwayTrack
 66
1
 10
0.0
 20
0.0
 30
0.0
 70
0
  0
VERTEX
  5
7E4
  8
L_RailwayTrack
 10
-5906.423092226851
 20
-33431.12016698212
 30
0.0
 70
0
  0
VERTEX
  5
7E5
  8
L_RailwayTrack
 10
-5904.781582404108
 20
-33432.23138384191
 30
0.0
 70
0
  0
VERTEX
  5
7E6
  8
L_RailwayTrack
 10
-5879.533935339249
 20
-33450.18385187765
 30
0.0
 70
0
  0
VERTEX
  5
7E7
  8
L_RailwayTrack
 10
-5859.367087077768
 20
-33466.06371264024
 30
0.0
 70
0
  0
VERTEX
  5
7E8
  8
L_RailwayTrack
 10
-5834.243029752548
 20
-33487.6862719768
 30
0.0
 70
0
  0
VERTEX
  5
7E9
  8
L_RailwayTrack
 10
-5824.866410751614
 20
-33497.80445511408
 30
0.0
 70
0
  0
VERTEX
  5
7EA
  8
L_RailwayTrack
 10
-5817.339847364972
 20
-33506.72067023609
 30
0.0
 70
0
  0
VERTEX
  5
7EB
  8
L_RailwayTrack
 10
-5812.822844413719
 20
-33512.77273203349
 30
0.0
 70
0
  0
VERTEX
  5
7EC
  8
L_RailwayTrack
 10
-5801.667211879062
 20
-33528.457873828105
 30
0.0
 70
0
  0
SEQEND
  5
7E3
  8
L_RailwayTrack
  0
POLYLINE
  5
7ED
  8
L_Elevator
 66
1
 10
0.0
 20
0.0
 30
0.0
 70
0
  0
VERTEX
  5
7EF
  8
L_Elevator
 10
-5967.900317697022
 20
-33517.32948595122
 30
0.0
 70
0
  0
VERTEX
  5
7F0
  8
L_Elevator
 10
-5969.283270406743
 20
-33520.88552577985
 30
0.0
 70
0
  0
VERTEX
  5
7F1
  8
L_Elevator
 10
-5971.983023706893
 20
-33519.856646361
 30
0.0
 70
0
  0
VERTEX
  5
7F2
  8
L_Elevator
 10
-5970.554541783893
 20
-33516.2779821062
 30
0.0
 70
0
  0
VERTEX
  5
7F3
  8
L_Elevator
 10
-5967.900317697022
 20
-33517.32948595122
 30
0.0
 70
0
  0
SEQEND
  5
7EE
  8
L_Elevator
  0
POLYLINE
  5
7F4
  8
L_Elevator
 66
1
 10
0.0
 20
0.0
 30
0.0
 70
0
  0
VERTEX
  5
7F6
  8
L_Elevator
 10
-5967.900317697022
 20
-33517.32948595122
 30
0.0
 70
0
  0
VERTEX
  5
7F7
  8
L_Elevator
 10
-5969.283270406743
 20
-33520.88552577985
 30
0.0
 70
0
  0
VERTEX
  5
7F8
  8
L_Elevator
 10
-5971.983023706893
 20
-33519.856646361
 30
0.0
 70
0
  0
VERTEX
  5
7F9
  8
L_Elevator
 10
-5970.554541783893
 20
-33516.2779821062
 30
0.0
 70
0
  0
VERTEX
  5
7FA
  8
L_Elevator
 10
-5967.900317697022
 20
-33517.32948595122
 30
0.0
 70
0
  0
SEQEND
  5
7F5
  8
L_Elevator
  0
POLYLINE
  5
7FB
  8
L_Elevator
 66
1
 10
0.0
 20
0.0
 30
0.0
 70
0
  0
VERTEX
  5
7FD
  8
L_Elevator
 10
-5967.900317697022
 20
-33517.32948595122
 30
0.0
 70
0
  0
VERTEX
  5
7FE
  8
L_Elevator
 10
-5969.283270406743
 20
-33520.88552577985
 30
0.0
 70
0
  0
VERTEX
  5
7FF
  8
L_Elevator
 10
-5971.983023706893
 20
-33519.856646361
 30
0.0
 70
0
  0
VERTEX
  5
800
  8
L_Elevator
 10
-5970.554541783893
 20
-33516.2779821062
 30
0.0
 70
0
  0
VERTEX
  5
801
  8
L_Elevator
 10
-5967.900317697022
 20
-33517.32948595122
 30
0.0
 70
0
  0
SEQEND
  5
7FC
  8
L_Elevator
  0
POLYLINE
  5
802
  8
L_Elevator
 66
1
 10
0.0
 20
0.0
 30
0.0
 70
0
  0
VERTEX
  5
804
  8
L_Elevator
 10
-5927.208224501257
 20
-33534.99809199796
 30
0.0
 70
0
  0
VERTEX
  5
805
  8
L_Elevator
 10
-5928.491821182267
 20
-33537.45917628519
 30
0.0
 70
0
  0
VERTEX
  5
806
  8
L_Elevator
 10
-5933.079740530828
 20
-33535.46994737702
 30
0.0
 70
0
  0
VERTEX
  5
807
  8
L_Elevator
 10
-5932.122441474349
 20
-33533.18989356784
 30
0.0
 70
0
  0
VERTEX
  5
808
  8
L_Elevator
 10
-5931.970509136848
 20
-33532.85770865498
 30
0.0
 70
0
  0
VERTEX
  5
809
  8
L_Elevator
 10
-5927.208224501257
 20
-33534.99809199796
 30
0.0
 70
0
  0
SEQEND
  5
803
  8
L_Elevator
  0
POLYLINE
  5
80A
  8
L_Elevator
 66
1
 10
0.0
 20
0.0
 30
0.0
 70
0
  0
VERTEX
  5
80C
  8
L_Elevator
 10
-5927.208224501257
 20
-33534.99809199796
 30
0.0
 70
0
  0
VERTEX
  5
80D
  8
L_Elevator
 10
-5928.491821182267
 20
-33537.45917628519
 30
0.0
 70
0
  0
VERTEX
  5
80E
  8
L_Elevator
 10
-5933.079740530828
 20
-33535.46994737702
 30
0.0
 70
0
  0
VERTEX
  5
80F
  8
L_Elevator
 10
-5932.122441474349
 20
-33533.18989356784
 30
0.0
 70
0
  0
VERTEX
  5
810
  8
L_Elevator
 10
-5931.970509136848
 20
-33532.85770865498
 30
0.0
 70
0
  0
VERTEX
  5
811
  8
L_Elevator
 10
-5927.208224501257
 20
-33534.99809199796
 30
0.0
 70
0
  0
SEQEND
  5
80B
  8
L_Elevator
  0
POLYLINE
  5
812
  8
L_Elevator
 66
1
 10
0.0
 20
0.0
 30
0.0
 70
0
  0
VERTEX
  5
814
  8
L_Elevator
 10
-5927.208224501257
 20
-33534.99809199796
 30
0.0
 70
0
  0
VERTEX
  5
815
  8
L_Elevator
 10
-5928.491821182267
 20
-33537.45917628519
 30
0.0
 70
0
  0
VERTEX
  5
816
  8
L_Elevator
 10
-5933.079740530828
 20
-33535.46994737702
 30
0.0
 70
0
  0
VERTEX
  5
817
  8
L_Elevator
 10
-5932.122441474349
 20
-33533.18989356784
 30
0.0
 70
0
  0
VERTEX
  5
818
  8
L_Elevator
 10
-5931.970509136848
 20
-33532.85770865498
 30
0.0
 70
0
  0
VERTEX
  5
819
  8
L_Elevator
 10
-5927.208224501257
 20
-33534.99809199796
 30
0.0
 70
0
  0
SEQEND
  5
813
  8
L_Elevator
  0
POLYLINE
  5
81A
  8
L_Admin_Town
 66
1
 10
0.0
 20
0.0
 30
0.0
 70
0
  0
VERTEX
  5
81C
  8
L_Admin_Town
 10
-5956.839769769648
 20
-33380.254975673204
 30
0.0
 70
0
  0
VERTEX
  5
81D
  8
L_Admin_Town
 10
-5961.02126684365
 20
-33394.45718175093
 30
0.0
 70
0
  0
VERTEX
  5
81E
  8
L_Admin_Town
 10
-5969.732018256516
 20
-33421.05652533807
 30
0.0
 70
0
  0
VERTEX
  5
81F
  8
L_Admin_Town
 10
-5990.636021975966
 20
-33486.41166489466
 30
0.0
 70
0
  0
VERTEX
  5
820
  8
L_Admin_Town
 10
-6007.549598628729
 20
-33483.3568216912
 30
0.0
 70
0
  0
VERTEX
  5
821
  8
L_Admin_Town
 10
-6022.125989309423
 20
-33512.63335093654
 30
0.0
 70
0
  0
VERTEX
  5
822
  8
L_Admin_Town
 10
-6025.149184754233
 20
-33518.77103518975
 30
0.0
 70
0
  0
VERTEX
  5
823
  8
L_Admin_Town
 10
-6048.05012538367
 20
-33563.73878368016
 30
0.0
 70
0
  0
SEQEND
  5
81B
  8
L_Admin_Town
  0
POLYLINE
  5
824
  8
L_Admin_Town
 66
1
 10
0.0
 20
0.0
 30
0.0
 70
0
  0
VERTEX
  5
826
  8
L_Admin_Town
 10
-5699.6570922722585
 20
-33563.96907467507
 30
0.0
 70
0
  0
VERTEX
  5
827
  8
L_Admin_Town
 10
-5769.0999734675415
 20
-33512.801225879964
 30
0.0
 70
0
  0
VERTEX
  5
828
  8
L_Admin_Town
 10
-5827.229982046501
 20
-33469.93631843524
 30
0.0
 70
0
  0
VERTEX
  5
829
  8
L_Admin_Town
 10
-5831.330580332067
 20
-33465.14571944227
 30
0.0
 70
0
  0
VERTEX
  5
82A
  8
L_Admin_Town
 10
-5833.536964881226
 20
-33463.64144230315
 30
0.0
 70
0
  0
VERTEX
  5
82B
  8
L_Admin_Town
 10
-5906.411466458179
 20
-33413.63004616181
 30
0.0
 70
0
  0
SEQEND
  5
825
  8
L_Admin_Town
  0
POLYLINE
  5
82C
  8
L_Admin_Town
 66
1
 10
0.0
 20
0.0
 30
0.0
 70
0
  0
VERTEX
  5
82E
  8
L_Admin_Town
 10
-5906.6021468867575
 20
-33700.50329996108
 30
0.0
 70
0
  0
VERTEX
  5
82F
  8
L_Admin_Town
 10
-5906.143073382559
 20
-33700.29214618855
 30
0.0
 70
0
  0
VERTEX
  5
830
  8
L_Admin_Town
 10
-5882.020779573333
 20
-33689.04796689005
 30
0.0
 70
0
  0
VERTEX
  5
831
  8
L_Admin_Town
 10
-5873.84223422538
 20
-33675.75414967114
 30
0.0
 70
0
  0
VERTEX
  5
832
  8
L_Admin_Town
 10
-5857.78744709985
 20
-33647.35385851255
 30
0.0
 70
0
  0
VERTEX
  5
833
  8
L_Admin_Town
 10
-5848.841422797035
 20
-33631.923357086314
 30
0.0
 70
0
  0
VERTEX
  5
834
  8
L_Admin_Town
 10
-5845.378226592745
 20
-33625.60457608892
 30
0.0
 70
0
  0
VERTEX
  5
835
  8
L_Admin_Town
 10
-5833.683118286551
 20
-33605.38792101035
 30
0.0
 70
0
  0
VERTEX
  5
836
  8
L_Admin_Town
 10
-5827.630317797338
 20
-33594.58495414449
 30
0.0
 70
0
  0
VERTEX
  5
837
  8
L_Admin_Town
 10
-5817.902472550146
 20
-33578.218577290914
 30
0.0
 70
0
  0
SEQEND
  5
82D
  8
L_Admin_Town
  0
POLYLINE
  5
838
  8
L_Admin_TownBlock
 66
1
 10
0.0
 20
0.0
 30
0.0
 70
0
  0
VERTEX
  5
83A
  8
L_Admin_TownBlock
 10
-5906.385042350052
 20
-33373.8771523363
 30
0.0
 70
0
  0
VERTEX
  5
83B
  8
L_Admin_TownBlock
 10
-5896.524276789446
 20
-33379.96292512417
 30
0.0
 70
0
  0
VERTEX
  5
83C
  8
L_Admin_TownBlock
 10
-5887.031189524055
 20
-33385.746373941845
 30
0.0
 70
0
  0
VERTEX
  5
83D
  8
L_Admin_TownBlock
 10
-5873.823193333753
 20
-33394.48504388406
 30
0.0
 70
0
  0
VERTEX
  5
83E
  8
L_Admin_TownBlock
 10
-5860.52416612888
 20
-33403.25397009209
 30
0.0
 70
0
  0
VERTEX
  5
83F
  8
L_Admin_TownBlock
 10
-5823.622496895999
 20
-33428.52411090116
 30
0.0
 70
0
  0
VERTEX
  5
840
  8
L_Admin_TownBlock
 10
-5812.5296714189035
 20
-33435.66789779035
 30
0.0
 70
0
  0
VERTEX
  5
841
  8
L_Admin_TownBlock
 10
-5776.232923885437
 20
-33458.40765020497
 30
0.0
 70
0
  0
VERTEX
  5
842
  8
L_Admin_TownBlock
 10
-5749.049557041931
 20
-33474.676980443684
 30
0.0
 70
0
  0
VERTEX
  5
843
  8
L_Admin_TownBlock
 10
-5692.680145605079
 20
-33507.51884007103
 30
0.0
 70
0
  0
VERTEX
  5
844
  8
L_Admin_TownBlock
 10
-5684.362258492946
 20
-33512.85583626787
 30
0.0
 70
0
  0
VERTEX
  5
845
  8
L_Admin_TownBlock
 10
-5671.054838557736
 20
-33520.92981955226
 30
0.0
 70
0
  0
VERTEX
  5
846
  8
L_Admin_TownBlock
 10
-5657.929446998092
 20
-33529.003674226595
 30
0.0
 70
0
  0
SEQEND
  5
839
  8
L_Admin_TownBlock
  0
POLYLINE
  5
847
  8
L_Geometry
 66
1
 10
0.0
 20
0.0
 30
0.0
 70
0
  0
VERTEX
  5
849
  8
L_Geometry
 10
-6005.781413020195
 20
-33515.89174976784
 30
0.0
 70
0
  0
VERTEX
  5
84A
  8
L_Geometry
 10
-6007.425860754001
 20
-33513.51177489497
 30
0.0
 70
0
  0
VERTEX
  5
84B
  8
L_Geometry
 10
-6008.183824482859
 20
-33512.64278869295
 30
0.0
 70
0
  0
VERTEX
  5
84C
  8
L_Geometry
 10
-6008.82051696194
 20
-33511.91737146554
 30
0.0
 70
0
  0
VERTEX
  5
84D
  8
L_Geometry
 10
-6012.38332458496
 20
-33508.39575603529
 30
0.0
 70
0
  0
SEQEND
  5
848
  8
L_Geometry
  0
POLYLINE
  5
84E
  8
L_Geometry
 66
1
 10
0.0
 20
0.0
 30
0.0
 70
0
  0
VERTEX
  5
850
  8
L_Geometry
 10
-6002.707837190468
 20
-33513.75662554311
 30
0.0
 70
0
  0
VERTEX
  5
851
  8
L_Geometry
 10
-6003.351855500675
 20
-33512.64605445346
 30
0.0
 70
0
  0
VERTEX
  5
852
  8
L_Geometry
 10
-6004.427854658981
 20
-33510.953691880604
 30
0.0
 70
0
  0
VERTEX
  5
853
  8
L_Geometry
 10
-6006.14854482766
 20
-33509.147614622365
 30
0.0
 70
0
  0
VERTEX
  5
854
  8
L_Geometry
 10
-6010.514746506092
 20
-33504.63615397847
 30
0.0
 70
0
  0
SEQEND
  5
84F
  8
L_Geometry
  0
POLYLINE
  5
855
  8
L_Geometry
 66
1
 10
0.0
 20
0.0
 30
0.0
 70
0
  0
VERTEX
  5
857
  8
L_Geometry
 10
-6007.888229622246
 20
-33512.997929986595
 30
0.0
 70
0
  0
VERTEX
  5
858
  8
L_Geometry
 10
-6004.897814177132
 20
-33510.44739408657
 30
0.0
 70
0
  0
SEQEND
  5
856
  8
L_Geometry
  0
POLYLINE
  5
859
  8
L_Geometry
 66
1
 10
0.0
 20
0.0
 30
0.0
 70
0
  0
VERTEX
  5
85B
  8
L_Geometry
 10
-6007.327351240944
 20
-33513.66288041176
 30
0.0
 70
0
  0
VERTEX
  5
85C
  8
L_Geometry
 10
-6004.283893315022
 20
-33511.19545136189
 30
0.0
 70
0
  0
SEQEND
  5
85A
  8
L_Geometry
  0
POLYLINE
  5
85D
  8
L_Geometry
 66
1
 10
0.0
 20
0.0
 30
0.0
 70
0
  0
VERTEX
  5
85F
  8
L_Geometry
 10
-6006.910556624677
 20
-33514.26731788112
 30
0.0
 70
0
  0
VERTEX
  5
860
  8
L_Geometry
 10
-6003.738328658852
 20
-33512.07184552861
 30
0.0
 70
0
  0
SEQEND
  5
85E
  8
L_Geometry
  0
POLYLINE
  5
861
  8
L_Geometry
 66
1
 10
0.0
 20
0.0
 30
0.0
 70
0
  0
VERTEX
  5
863
  8
L_Geometry
 10
-6006.342189566359
 20
-33515.07576039795
 30
0.0
 70
0
  0
VERTEX
  5
864
  8
L_Geometry
 10
-6003.200344304384
 20
-33512.940682680826
 30
0.0
 70
0
  0
SEQEND
  5
862
  8
L_Geometry
  0
POLYLINE
  5
865
  8
L_Geometry
 66
1
 10
0.0
 20
0.0
 30
0.0
 70
0
  0
VERTEX
  5
867
  8
L_Geometry
 10
-5952.903278746926
 20
-33516.62211021895
 30
0.0
 70
0
  0
VERTEX
  5
868
  8
L_Geometry
 10
-5961.760511881465
 20
-33512.67405596566
 30
0.0
 70
0
  0
VERTEX
  5
869
  8
L_Geometry
 10
-5962.329242608171
 20
-33512.40180435875
 30
0.0
 70
0
  0
SEQEND
  5
866
  8
L_Geometry
  0
POLYLINE
  5
86A
  8
L_Geometry
 66
1
 10
0.0
 20
0.0
 30
0.0
 70
0
  0
VERTEX
  5
86C
  8
L_Geometry
 10
-5951.597017869575
 20
-33514.30453732945
 30
0.0
 70
0
  0
VERTEX
  5
86D
  8
L_Geometry
 10
-5955.50246730436
 20
-33512.67825236619
 30
0.0
 70
0
  0
VERTEX
  5
86E
  8
L_Geometry
 10
-5961.220101728646
 20
-33509.93306284521
 30
0.0
 70
0
  0
SEQEND
  5
86B
  8
L_Geometry
  0
POLYLINE
  5
86F
  8
L_Geometry
 66
1
 10
0.0
 20
0.0
 30
0.0
 70
0
  0
VERTEX
  5
871
  8
L_Geometry
 10
-5961.146283266872
 20
-33512.96899390432
 30
0.0
 70
0
  0
VERTEX
  5
872
  8
L_Geometry
 10
-5960.014391192633
 20
-33510.507819292005
 30
0.0
 70
0
  0
SEQEND
  5
870
  8
L_Geometry
  0
POLYLINE
  5
873
  8
L_Geometry
 66
1
 10
0.0
 20
0.0
 30
0.0
 70
0
  0
VERTEX
  5
875
  8
L_Geometry
 10
-5960.2135290819015
 20
-33513.362320760076
 30
0.0
 70
0
  0
VERTEX
  5
876
  8
L_Geometry
 10
-5959.157507477606
 20
-33510.92375087133
 30
0.0
 70
0
  0
SEQEND
  5
874
  8
L_Geometry
  0
POLYLINE
  5
877
  8
L_Geometry
 66
1
 10
0.0
 20
0.0
 30
0.0
 70
0
  0
VERTEX
  5
879
  8
L_Geometry
 10
-5959.311116850915
 20
-33513.75562718246
 30
0.0
 70
0
  0
VERTEX
  5
87A
  8
L_Geometry
 10
-5958.277872225685
 20
-33511.34724958554
 30
0.0
 70
0
  0
SEQEND
  5
878
  8
L_Geometry
  0
POLYLINE
  5
87B
  8
L_Geometry
 66
1
 10
0.0
 20
0.0
 30
0.0
 70
0
  0
VERTEX
  5
87D
  8
L_Geometry
 10
-5958.401139285543
 20
-33514.17914639024
 30
0.0
 70
0
  0
VERTEX
  5
87E
  8
L_Geometry
 10
-5957.367894858134
 20
-33511.77076857169
 30
0.0
 70
0
  0
SEQEND
  5
87C
  8
L_Geometry
  0
POLYLINE
  5
87F
  8
L_Geometry
 66
1
 10
0.0
 20
0.0
 30
0.0
 70
0
  0
VERTEX
  5
881
  8
L_Geometry
 10
-5957.445648573489
 20
-33514.60269603708
 30
0.0
 70
0
  0
VERTEX
  5
882
  8
L_Geometry
 10
-5956.412424604851
 20
-33512.22452576246
 30
0.0
 70
0
  0
SEQEND
  5
880
  8
L_Geometry
  0
POLYLINE
  5
883
  8
L_Geometry
 66
1
 10
0.0
 20
0.0
 30
0.0
 70
0
  0
VERTEX
  5
885
  8
L_Geometry
 10
-5956.581178832713
 20
-33515.018632642605
 30
0.0
 70
0
  0
VERTEX
  5
886
  8
L_Geometry
 10
-5955.578281898041
 20
-33512.617785993054
 30
0.0
 70
0
  0
SEQEND
  5
884
  8
L_Geometry
  0
POLYLINE
  5
887
  8
L_Geometry
 66
1
 10
0.0
 20
0.0
 30
0.0
 70
0
  0
VERTEX
  5
889
  8
L_Geometry
 10
-5955.648424231292
 20
-33515.41195910465
 30
0.0
 70
0
  0
VERTEX
  5
88A
  8
L_Geometry
 10
-5954.615200650391
 20
-33513.03378840658
 30
0.0
 70
0
  0
SEQEND
  5
888
  8
L_Geometry
  0
POLYLINE
  5
88B
  8
L_Geometry
 66
1
 10
0.0
 20
0.0
 30
0.0
 70
0
  0
VERTEX
  5
88D
  8
L_Geometry
 10
-5954.746011590839
 20
-33515.80526515456
 30
0.0
 70
0
  0
VERTEX
  5
88E
  8
L_Geometry
 10
-5953.659669403461
 20
-33513.39692205278
 30
0.0
 70
0
  0
SEQEND
  5
88C
  8
L_Geometry
  0
POLYLINE
  5
88F
  8
L_Geometry
 66
1
 10
0.0
 20
0.0
 30
0.0
 70
0
  0
VERTEX
  5
891
  8
L_Geometry
 10
-5953.813256823625
 20
-33516.19859146153
 30
0.0
 70
0
  0
VERTEX
  5
892
  8
L_Geometry
 10
-5952.757277116368
 20
-33513.820435583606
 30
0.0
 70
0
  0
SEQEND
  5
890
  8
L_Geometry
  0
POLYLINE
  5
893
  8
L_Geometry
 66
1
 10
0.0
 20
0.0
 30
0.0
 70
0
  0
VERTEX
  5
895
  8
L_Geometry
 10
-5943.73098711428
 20
-33525.86428785992
 30
0.0
 70
0
  0
VERTEX
  5
896
  8
L_Geometry
 10
-5951.731414124649
 20
-33522.43034544054
 30
0.0
 70
0
  0
SEQEND
  5
894
  8
L_Geometry
  0
POLYLINE
  5
897
  8
L_Geometry
 66
1
 10
0.0
 20
0.0
 30
0.0
 70
0
  0
VERTEX
  5
899
  8
L_Geometry
 10
-5951.018557607944
 20
-33522.70269319467
 30
0.0
 70
0
  0
VERTEX
  5
89A
  8
L_Geometry
 10
-5949.515254964252
 20
-33520.65712064439
 30
0.0
 70
0
  0
VERTEX
  5
89B
  8
L_Geometry
 10
-5942.698028140909
 20
-33523.87881445552
 30
0.0
 70
0
  0
SEQEND
  5
898
  8
L_Geometry
  0
POLYLINE
  5
89C
  8
L_Geometry
 66
1
 10
0.0
 20
0.0
 30
0.0
 70
0
  0
VERTEX
  5
89E
  8
L_Geometry
 10
-5950.1085534480335
 20
-33523.088452220865
 30
0.0
 70
0
  0
VERTEX
  5
89F
  8
L_Geometry
 10
-5949.0299639913865
 20
-33520.92931582017
 30
0.0
 70
0
  0
SEQEND
  5
89D
  8
L_Geometry
  0
POLYLINE
  5
8A0
  8
L_Geometry
 66
1
 10
0.0
 20
0.0
 30
0.0
 70
0
  0
VERTEX
  5
8A2
  8
L_Geometry
 10
-5949.198554267574
 20
-33523.48176311995
 30
0.0
 70
0
  0
VERTEX
  5
8A3
  8
L_Geometry
 10
-5948.195794867845
 20
-33521.284815994506
 30
0.0
 70
0
  0
SEQEND
  5
8A1
  8
L_Geometry
  0
POLYLINE
  5
8A4
  8
L_Geometry
 66
1
 10
0.0
 20
0.0
 30
0.0
 70
0
  0
VERTEX
  5
8A6
  8
L_Geometry
 10
-5948.265818670363
 20
-33523.905296983605
 30
0.0
 70
0
  0
VERTEX
  5
8A7
  8
L_Geometry
 10
-5947.331329095018
 20
-33521.70830395812
 30
0.0
 70
0
  0
SEQEND
  5
8A5
  8
L_Geometry
  0
POLYLINE
  5
8A8
  8
L_Geometry
 66
1
 10
0.0
 20
0.0
 30
0.0
 70
0
  0
VERTEX
  5
8AA
  8
L_Geometry
 10
-5947.363425056844
 20
-33524.32881046061
 30
0.0
 70
0
  0
VERTEX
  5
8AB
  8
L_Geometry
 10
-5946.428935665068
 20
-33522.13181723756
 30
0.0
 70
0
  0
SEQEND
  5
8A9
  8
L_Geometry
  0
POLYLINE
  5
8AC
  8
L_Geometry
 66
1
 10
0.0
 20
0.0
 30
0.0
 70
0
  0
VERTEX
  5
8AE
  8
L_Geometry
 10
-5946.453405411306
 20
-33524.69191332433
 30
0.0
 70
0
  0
VERTEX
  5
8AF
  8
L_Geometry
 10
-5945.496200075943
 20
-33522.5553507422
 30
0.0
 70
0
  0
SEQEND
  5
8AD
  8
L_Geometry
  0
POLYLINE
  5
8B0
  8
L_Geometry
 66
1
 10
0.0
 20
0.0
 30
0.0
 70
0
  0
VERTEX
  5
8B2
  8
L_Geometry
 10
-5945.497907943443
 20
-33525.10791022729
 30
0.0
 70
0
  0
VERTEX
  5
8B3
  8
L_Geometry
 10
-5944.631734058161
 20
-33522.97883850046
 30
0.0
 70
0
  0
SEQEND
  5
8B1
  8
L_Geometry
  0
POLYLINE
  5
8B4
  8
L_Geometry
 66
1
 10
0.0
 20
0.0
 30
0.0
 70
0
  0
VERTEX
  5
8B6
  8
L_Geometry
 10
-5944.6334214686785
 20
-33525.501190302115
 30
0.0
 70
0
  0
VERTEX
  5
8B7
  8
L_Geometry
 10
-5943.729335319583
 20
-33523.39479961385
 30
0.0
 70
0
  0
SEQEND
  5
8B5
  8
L_Geometry
  0
POLYLINE
  5
8B8
  8
L_Geometry
 66
1
 10
0.0
 20
0.0
 30
0.0
 70
0
  0
VERTEX
  5
8BA
  8
L_Geometry
 10
-5936.019489891304
 20
-33530.325097862835
 30
0.0
 70
0
  0
VERTEX
  5
8BB
  8
L_Geometry
 10
-5934.403107629771
 20
-33529.32931881871
 30
0.0
 70
0
  0
VERTEX
  5
8BC
  8
L_Geometry
 10
-5933.492527210122
 20
-33528.854153473614
 30
0.0
 70
0
  0
VERTEX
  5
8BD
  8
L_Geometry
 10
-5932.559185282042
 20
-33528.37145130026
 30
0.0
 70
0
  0
SEQEND
  5
8B9
  8
L_Geometry
  0
POLYLINE
  5
8BE
  8
L_Geometry
 66
1
 10
0.0
 20
0.0
 30
0.0
 70
0
  0
VERTEX
  5
8C0
  8
L_Geometry
 10
-5932.639079082731
 20
-33534.42051861407
 30
0.0
 70
0
  0
VERTEX
  5
8C1
  8
L_Geometry
 10
-5935.215081387509
 20
-33529.81210192045
 30
0.0
 70
0
  0
SEQEND
  5
8BF
  8
L_Geometry
  0
POLYLINE
  5
8C2
  8
L_Geometry
 66
1
 10
0.0
 20
0.0
 30
0.0
 70
0
  0
VERTEX
  5
8C4
  8
L_Geometry
 10
-5932.122441474349
 20
-33533.18989356784
 30
0.0
 70
0
  0
VERTEX
  5
8C5
  8
L_Geometry
 10
-5934.403107629771
 20
-33529.32931881871
 30
0.0
 70
0
  0
SEQEND
  5
8C3
  8
L_Geometry
  0
POLYLINE
  5
8C6
  8
L_Geometry
 66
1
 10
0.0
 20
0.0
 30
0.0
 70
0
  0
VERTEX
  5
8C8
  8
L_Geometry
 10
-5931.5526398040665
 20
-33531.8611286565
 30
0.0
 70
0
  0
VERTEX
  5
8C9
  8
L_Geometry
 10
-5933.492527210122
 20
-33528.854153473614
 30
0.0
 70
0
  0
SEQEND
  5
8C7
  8
L_Geometry
  0
POLYLINE
  5
8CA
  8
L_Geometry
 66
1
 10
0.0
 20
0.0
 30
0.0
 70
0
  0
VERTEX
  5
8CC
  8
L_Geometry
 10
-6011.981081624632
 20
-33575.35556905698
 30
0.0
 70
0
  0
VERTEX
  5
8CD
  8
L_Geometry
 10
-6014.930904281468
 20
-33573.93379733583
 30
0.0
 70
0
  0
SEQEND
  5
8CB
  8
L_Geometry
  0
POLYLINE
  5
8CE
  8
L_Geometry
 66
1
 10
0.0
 20
0.0
 30
0.0
 70
0
  0
VERTEX
  5
8D0
  8
L_Geometry
 10
-6014.680683001533
 20
-33574.085006642505
 30
0.0
 70
0
  0
VERTEX
  5
8D1
  8
L_Geometry
 10
-6012.887966208056
 20
-33570.35553412292
 30
0.0
 70
0
  0
SEQEND
  5
8CF
  8
L_Geometry
  0
POLYLINE
  5
8D2
  8
L_Geometry
 66
1
 10
0.0
 20
0.0
 30
0.0
 70
0
  0
VERTEX
  5
8D4
  8
L_Geometry
 10
-6013.778287439469
 20
-33574.50852923154
 30
0.0
 70
0
  0
VERTEX
  5
8D5
  8
L_Geometry
 10
-6012.008327615233
 20
-33570.779040958514
 30
0.0
 70
0
  0
SEQEND
  5
8D3
  8
L_Geometry
  0
POLYLINE
  5
8D6
  8
L_Geometry
 66
1
 10
0.0
 20
0.0
 30
0.0
 70
0
  0
VERTEX
  5
8D8
  8
L_Geometry
 10
-6010.112545877315
 20
-33571.67901071545
 30
0.0
 70
0
  0
VERTEX
  5
8D9
  8
L_Geometry
 10
-6012.963801345685
 20
-33570.32527483486
 30
0.0
 70
0
  0
SEQEND
  5
8D7
  8
L_Geometry
  0
POLYLINE
  5
8DA
  8
L_Geometry
 66
1
 10
0.0
 20
0.0
 30
0.0
 70
0
  0
VERTEX
  5
8DC
  8
L_Geometry
 10
-6012.868306231869
 20
-33574.932056877944
 30
0.0
 70
0
  0
VERTEX
  5
8DD
  8
L_Geometry
 10
-6011.098387576698
 20
-33571.26298417855
 30
0.0
 70
0
  0
SEQEND
  5
8DB
  8
L_Geometry
  0
POLYLINE
  5
8DE
  8
L_Geometry
 66
1
 10
0.0
 20
0.0
 30
0.0
 70
0
  0
VERTEX
  5
8E0
  8
L_Geometry
 10
-6010.11562072584
 20
-33576.22531076083
 30
0.0
 70
0
  0
VERTEX
  5
8E1
  8
L_Geometry
 10
-6006.930741052417
 20
-33577.7907281384
 30
0.0
 70
0
  0
SEQEND
  5
8DF
  8
L_Geometry
  0
POLYLINE
  5
8E2
  8
L_Geometry
 66
1
 10
0.0
 20
0.0
 30
0.0
 70
0
  0
VERTEX
  5
8E4
  8
L_Geometry
 10
-6007.466104769131
 20
-33573.040159414166
 30
0.0
 70
0
  0
VERTEX
  5
8E5
  8
L_Geometry
 10
-6009.235981419834
 20
-33576.64881759571
 30
0.0
 70
0
  0
SEQEND
  5
8E3
  8
L_Geometry
  0
POLYLINE
  5
8E6
  8
L_Geometry
 66
1
 10
0.0
 20
0.0
 30
0.0
 70
0
  0
VERTEX
  5
8E8
  8
L_Geometry
 10
-6008.376065614202
 20
-33572.58642444193
 30
0.0
 70
0
  0
VERTEX
  5
8E9
  8
L_Geometry
 10
-6005.229094333195
 20
-33574.12160695576
 30
0.0
 70
0
  0
SEQEND
  5
8E7
  8
L_Geometry
  0
POLYLINE
  5
8EA
  8
L_Geometry
 66
1
 10
0.0
 20
0.0
 30
0.0
 70
0
  0
VERTEX
  5
8EC
  8
L_Geometry
 10
-6006.578880094577
 20
-33573.46367096581
 30
0.0
 70
0
  0
VERTEX
  5
8ED
  8
L_Geometry
 10
-6008.326020204392
 20
-33577.102552862525
 30
0.0
 70
0
  0
SEQEND
  5
8EB
  8
L_Geometry
  0
POLYLINE
  5
8EE
  8
L_Geometry
 66
1
 10
0.0
 20
0.0
 30
0.0
 70
0
  0
VERTEX
  5
8F0
  8
L_Geometry
 10
-6005.676479109521
 20
-33573.87964070688
 30
0.0
 70
0
  0
VERTEX
  5
8F1
  8
L_Geometry
 10
-6007.446380726525
 20
-33577.52605956074
 30
0.0
 70
0
  0
SEQEND
  5
8EF
  8
L_Geometry
  0
POLYLINE
  5
8F2
  8
L_Geometry
 66
1
 10
0.0
 20
0.0
 30
0.0
 70
0
  0
VERTEX
  5
8F4
  8
L_Geometry
 10
-6005.011797440266
 20
-33578.09410511239
 30
0.0
 70
0
  0
VERTEX
  5
8F5
  8
L_Geometry
 10
-6003.393959975323
 20
-33574.96867064043
 30
0.0
 70
0
  0
SEQEND
  5
8F3
  8
L_Geometry
  0
POLYLINE
  5
8F6
  8
L_Geometry
 66
1
 10
0.0
 20
0.0
 30
0.0
 70
0
  0
VERTEX
  5
8F8
  8
L_Geometry
 10
-6003.881548332905
 20
-33578.094868824825
 30
0.0
 70
0
  0
VERTEX
  5
8F9
  8
L_Geometry
 10
-6002.529491601792
 20
-33575.39216650378
 30
0.0
 70
0
  0
SEQEND
  5
8F7
  8
L_Geometry
  0
POLYLINE
  5
8FA
  8
L_Geometry
 66
1
 10
0.0
 20
0.0
 30
0.0
 70
0
  0
VERTEX
  5
8FC
  8
L_Geometry
 10
-6000.792963942756
 20
-33576.23161116073
 30
0.0
 70
0
  0
VERTEX
  5
8FD
  8
L_Geometry
 10
-6003.682129687561
 20
-33574.84764398955
 30
0.0
 70
0
  0
SEQEND
  5
8FB
  8
L_Geometry
  0
POLYLINE
  5
8FE
  8
L_Geometry
 66
1
 10
0.0
 20
0.0
 30
0.0
 70
0
  0
VERTEX
  5
900
  8
L_Geometry
 10
-6002.804398178173
 20
-33578.09559652392
 30
0.0
 70
0
  0
VERTEX
  5
901
  8
L_Geometry
 10
-6001.627110634006
 20
-33575.83834390068
 30
0.0
 70
0
  0
SEQEND
  5
8FF
  8
L_Geometry
  0
POLYLINE
  5
902
  8
L_Geometry
 66
1
 10
0.0
 20
0.0
 30
0.0
 70
0
  0
VERTEX
  5
904
  8
L_Geometry
 10
-5997.031783613484
 20
-33578.0994941493
 30
0.0
 70
0
  0
VERTEX
  5
905
  8
L_Geometry
 10
-5999.071632575359
 20
-33577.10880529539
 30
0.0
 70
0
  0
SEQEND
  5
903
  8
L_Geometry
  0
POLYLINE
  5
906
  8
L_Geometry
 66
1
 10
0.0
 20
0.0
 30
0.0
 70
0
  0
VERTEX
  5
908
  8
L_Geometry
 10
-5998.579238766584
 20
-33578.098449687495
 30
0.0
 70
0
  0
VERTEX
  5
909
  8
L_Geometry
 10
-5998.282999036937
 20
-33577.50204164833
 30
0.0
 70
0
  0
SEQEND
  5
907
  8
L_Geometry
  0
POLYLINE
  5
90A
  8
L_Geometry
 66
1
 10
0.0
 20
0.0
 30
0.0
 70
0
  0
VERTEX
  5
90C
  8
L_Geometry
 10
-5997.448989659746
 20
-33578.09921258134
 30
0.0
 70
0
  0
VERTEX
  5
90D
  8
L_Geometry
 10
-5997.350275384264
 20
-33577.94823919749
 30
0.0
 70
0
  0
SEQEND
  5
90B
  8
L_Geometry
  0
POLYLINE
  5
90E
  8
L_Geometry
 66
1
 10
0.0
 20
0.0
 30
0.0
 70
0
  0
VERTEX
  5
910
  8
L_Geometry
 10
-5944.266877963644
 20
-33567.214761099065
 30
0.0
 70
0
  0
VERTEX
  5
911
  8
L_Geometry
 10
-5942.165395902155
 20
-33578.1363523235
 30
0.0
 70
0
  0
SEQEND
  5
90F
  8
L_Geometry
  0
POLYLINE
  5
912
  8
L_Geometry
 66
1
 10
0.0
 20
0.0
 30
0.0
 70
0
  0
VERTEX
  5
914
  8
L_Geometry
 10
-5940.02693126378
 20
-33567.78399567216
 30
0.0
 70
0
  0
VERTEX
  5
915
  8
L_Geometry
 10
-5944.025044430744
 20
-33568.5667293684
 30
0.0
 70
0
  0
SEQEND
  5
913
  8
L_Geometry
  0
POLYLINE
  5
916
  8
L_Geometry
 66
1
 10
0.0
 20
0.0
 30
0.0
 70
0
  0
VERTEX
  5
918
  8
L_Geometry
 10
-5939.800030927302
 20
-33568.781010278624
 30
0.0
 70
0
  0
VERTEX
  5
919
  8
L_Geometry
 10
-5943.851223213326
 20
-33569.533500692334
 30
0.0
 70
0
  0
SEQEND
  5
917
  8
L_Geometry
  0
POLYLINE
  5
91A
  8
L_Geometry
 66
1
 10
0.0
 20
0.0
 30
0.0
 70
0
  0
VERTEX
  5
91C
  8
L_Geometry
 10
-5939.611033090343
 20
-33569.740239690735
 30
0.0
 70
0
  0
VERTEX
  5
91D
  8
L_Geometry
 10
-5943.662246000043
 20
-33570.52293823187
 30
0.0
 70
0
  0
SEQEND
  5
91B
  8
L_Geometry
  0
POLYLINE
  5
91E
  8
L_Geometry
 66
1
 10
0.0
 20
0.0
 30
0.0
 70
0
  0
VERTEX
  5
920
  8
L_Geometry
 10
-5939.437211371969
 20
-33570.70701105362
 30
0.0
 70
0
  0
VERTEX
  5
921
  8
L_Geometry
 10
-5943.465668034559
 20
-33571.489724978564
 30
0.0
 70
0
  0
SEQEND
  5
91F
  8
L_Geometry
  0
POLYLINE
  5
922
  8
L_Geometry
 66
1
 10
0.0
 20
0.0
 30
0.0
 70
0
  0
VERTEX
  5
924
  8
L_Geometry
 10
-5939.263404758103
 20
-33571.696438489766
 30
0.0
 70
0
  0
VERTEX
  5
925
  8
L_Geometry
 10
-5943.269105174243
 20
-33572.47916780348
 30
0.0
 70
0
  0
SEQEND
  5
923
  8
L_Geometry
  0
POLYLINE
  5
926
  8
L_Geometry
 66
1
 10
0.0
 20
0.0
 30
0.0
 70
0
  0
VERTEX
  5
928
  8
L_Geometry
 10
-5939.044069608207
 20
-33572.66324047652
 30
0.0
 70
0
  0
VERTEX
  5
929
  8
L_Geometry
 10
-5943.072527120004
 20
-33573.44595475057
 30
0.0
 70
0
  0
SEQEND
  5
927
  8
L_Geometry
  0
POLYLINE
  5
92A
  8
L_Geometry
 66
1
 10
0.0
 20
0.0
 30
0.0
 70
0
  0
VERTEX
  5
92C
  8
L_Geometry
 10
-5938.877828283949
 20
-33573.6224550784
 30
0.0
 70
0
  0
VERTEX
  5
92D
  8
L_Geometry
 10
-5942.898700656507
 20
-33574.40517458471
 30
0.0
 70
0
  0
SEQEND
  5
92B
  8
L_Geometry
  0
POLYLINE
  5
92E
  8
L_Geometry
 66
1
 10
0.0
 20
0.0
 30
0.0
 70
0
  0
VERTEX
  5
930
  8
L_Geometry
 10
-5938.681269916967
 20
-33574.61945002687
 30
0.0
 70
0
  0
VERTEX
  5
931
  8
L_Geometry
 10
-5942.732484969813
 20
-33575.40214942058
 30
0.0
 70
0
  0
SEQEND
  5
92F
  8
L_Geometry
  0
POLYLINE
  5
932
  8
L_Geometry
 66
1
 10
0.0
 20
0.0
 30
0.0
 70
0
  0
VERTEX
  5
934
  8
L_Geometry
 10
-5938.454369253526
 20
-33575.61646535844
 30
0.0
 70
0
  0
VERTEX
  5
935
  8
L_Geometry
 10
-5942.505579690287
 20
-33576.391612947955
 30
0.0
 70
0
  0
SEQEND
  5
933
  8
L_Geometry
  0
POLYLINE
  5
936
  8
L_Geometry
 66
1
 10
0.0
 20
0.0
 30
0.0
 70
0
  0
VERTEX
  5
938
  8
L_Geometry
 10
-5938.288127809759
 20
-33576.575680266935
 30
0.0
 70
0
  0
VERTEX
  5
939
  8
L_Geometry
 10
-5942.316587031876
 20
-33577.35839522998
 30
0.0
 70
0
  0
SEQEND
  5
937
  8
L_Geometry
  0
POLYLINE
  5
93A
  8
L_Geometry
 66
1
 10
0.0
 20
0.0
 30
0.0
 70
0
  0
VERTEX
  5
93C
  8
L_Geometry
 10
-5938.068812620578
 20
-33577.57269073588
 30
0.0
 70
0
  0
VERTEX
  5
93D
  8
L_Geometry
 10
-5940.966876718347
 20
-33578.13715368501
 30
0.0
 70
0
  0
SEQEND
  5
93B
  8
L_Geometry
  0
POLYLINE
  5
93E
  8
L_Geometry
 66
1
 10
0.0
 20
0.0
 30
0.0
 70
0
  0
VERTEX
  5
940
  8
L_Geometry
 10
-5940.1931521580445
 20
-33566.79457372603
 30
0.0
 70
0
  0
VERTEX
  5
941
  8
L_Geometry
 10
-5937.993335461172
 20
-33578.1391411732
 30
0.0
 70
0
  0
SEQEND
  5
93F
  8
L_Geometry
  0
POLYLINE
  5
942
  8
L_Geometry
 66
1
 10
0.0
 20
0.0
 30
0.0
 70
0
  0
VERTEX
  5
944
  8
L_Geometry
 10
-6022.173834743597
 20
-33583.2329567683
 30
0.0
 70
0
  0
VERTEX
  5
945
  8
L_Geometry
 10
-6025.001700463915
 20
-33580.94278274156
 30
0.0
 70
0
  0
VERTEX
  5
946
  8
L_Geometry
 10
-6026.351583117814
 20
-33580.428331224655
 30
0.0
 70
0
  0
SEQEND
  5
943
  8
L_Geometry
  0
POLYLINE
  5
947
  8
L_Geometry
 66
1
 10
0.0
 20
0.0
 30
0.0
 70
0
  0
VERTEX
  5
949
  8
L_Geometry
 10
-6024.925865276391
 20
-33580.97304217194
 30
0.0
 70
0
  0
VERTEX
  5
94A
  8
L_Geometry
 10
-6023.574062781453
 20
-33578.655494031074
 30
0.0
 70
0
  0
SEQEND
  5
948
  8
L_Geometry
  0
POLYLINE
  5
94B
  8
L_Geometry
 66
1
 10
0.0
 20
0.0
 30
0.0
 70
0
  0
VERTEX
  5
94D
  8
L_Geometry
 10
-6020.480804907421
 20
-33581.0968868837
 30
0.0
 70
0
  0
VERTEX
  5
94E
  8
L_Geometry
 10
-6023.49820712996
 20
-33578.65554544947
 30
0.0
 70
0
  0
VERTEX
  5
94F
  8
L_Geometry
 10
-6024.6053104917
 20
-33578.08084288601
 30
0.0
 70
0
  0
SEQEND
  5
94C
  8
L_Geometry
  0
POLYLINE
  5
950
  8
L_Geometry
 66
1
 10
0.0
 20
0.0
 30
0.0
 70
0
  0
VERTEX
  5
952
  8
L_Geometry
 10
-6024.53166155328
 20
-33581.335805577146
 30
0.0
 70
0
  0
VERTEX
  5
953
  8
L_Geometry
 10
-6022.815874815432
 20
-33579.199752016735
 30
0.0
 70
0
  0
SEQEND
  5
951
  8
L_Geometry
  0
POLYLINE
  5
954
  8
L_Geometry
 66
1
 10
0.0
 20
0.0
 30
0.0
 70
0
  0
VERTEX
  5
956
  8
L_Geometry
 10
-6023.7507730276475
 20
-33581.96315123578
 30
0.0
 70
0
  0
VERTEX
  5
957
  8
L_Geometry
 10
-6022.004664561372
 20
-33579.85732593381
 30
0.0
 70
0
  0
SEQEND
  5
955
  8
L_Geometry
  0
POLYLINE
  5
958
  8
L_Geometry
 66
1
 10
0.0
 20
0.0
 30
0.0
 70
0
  0
VERTEX
  5
95A
  8
L_Geometry
 10
-6022.985060649779
 20
-33582.598038590964
 30
0.0
 70
0
  0
VERTEX
  5
95B
  8
L_Geometry
 10
-6021.238931769825
 20
-33580.46200499091
 30
0.0
 70
0
  0
SEQEND
  5
959
  8
L_Geometry
  0
POLYLINE
  5
95C
  8
L_Geometry
 66
1
 10
0.0
 20
0.0
 30
0.0
 70
0
  0
VERTEX
  5
95E
  8
L_Geometry
 10
-6004.3594616297805
 20
-33589.35458552253
 30
0.0
 70
0
  0
VERTEX
  5
95F
  8
L_Geometry
 10
-6006.491212133879
 20
-33589.655225264905
 30
0.0
 70
0
  0
VERTEX
  5
960
  8
L_Geometry
 10
-6008.653100821534
 20
-33589.65376371673
 30
0.0
 70
0
  0
VERTEX
  5
961
  8
L_Geometry
 10
-6011.376178966907
 20
-33589.44046574794
 30
0.0
 70
0
  0
VERTEX
  5
962
  8
L_Geometry
 10
-6012.953753548091
 20
-33589.10710997963
 30
0.0
 70
0
  0
VERTEX
  5
963
  8
L_Geometry
 10
-6014.447764031195
 20
-33588.592562280115
 30
0.0
 70
0
  0
VERTEX
  5
964
  8
L_Geometry
 10
-6016.828821060672
 20
-33587.390181015755
 30
0.0
 70
0
  0
SEQEND
  5
95D
  8
L_Geometry
  0
POLYLINE
  5
965
  8
L_Geometry
 66
1
 10
0.0
 20
0.0
 30
0.0
 70
0
  0
VERTEX
  5
967
  8
L_Geometry
 10
-6015.994689294371
 20
-33587.806106221324
 30
0.0
 70
0
  0
VERTEX
  5
968
  8
L_Geometry
 10
-6014.81740222401
 20
-33585.55640489315
 30
0.0
 70
0
  0
SEQEND
  5
966
  8
L_Geometry
  0
POLYLINE
  5
969
  8
L_Geometry
 66
1
 10
0.0
 20
0.0
 30
0.0
 70
0
  0
VERTEX
  5
96B
  8
L_Geometry
 10
-6004.2815494811075
 20
-33586.31117871578
 30
0.0
 70
0
  0
VERTEX
  5
96C
  8
L_Geometry
 10
-6004.949385970423
 20
-33586.76384789283
 30
0.0
 70
0
  0
VERTEX
  5
96D
  8
L_Geometry
 10
-6006.686665703415
 20
-33587.03454602756
 30
0.0
 70
0
  0
VERTEX
  5
96E
  8
L_Geometry
 10
-6008.507203009989
 20
-33587.033315243585
 30
0.0
 70
0
  0
VERTEX
  5
96F
  8
L_Geometry
 10
-6010.957199764479
 20
-33586.82020210285
 30
0.0
 70
0
  0
VERTEX
  5
970
  8
L_Geometry
 10
-6012.238977477827
 20
-33586.54746270069
 30
0.0
 70
0
  0
VERTEX
  5
971
  8
L_Geometry
 10
-6013.513067329264
 20
-33586.12368817833
 30
0.0
 70
0
  0
VERTEX
  5
972
  8
L_Geometry
 10
-6015.279978908879
 20
-33585.34463559551
 30
0.0
 70
0
  0
SEQEND
  5
96A
  8
L_Geometry
  0
POLYLINE
  5
973
  8
L_Geometry
 66
1
 10
0.0
 20
0.0
 30
0.0
 70
0
  0
VERTEX
  5
975
  8
L_Geometry
 10
-6015.137805839857
 20
-33588.22959877989
 30
0.0
 70
0
  0
VERTEX
  5
976
  8
L_Geometry
 10
-6013.975664518594
 20
-33585.94212694722
 30
0.0
 70
0
  0
SEQEND
  5
974
  8
L_Geometry
  0
POLYLINE
  5
977
  8
L_Geometry
 66
1
 10
0.0
 20
0.0
 30
0.0
 70
0
  0
VERTEX
  5
979
  8
L_Geometry
 10
-6014.2050870140965
 20
-33588.68335063856
 30
0.0
 70
0
  0
VERTEX
  5
97A
  8
L_Geometry
 10
-6013.368961917021
 20
-33586.15399372474
 30
0.0
 70
0
  0
SEQEND
  5
978
  8
L_Geometry
  0
POLYLINE
  5
97B
  8
L_Geometry
 66
1
 10
0.0
 20
0.0
 30
0.0
 70
0
  0
VERTEX
  5
97D
  8
L_Geometry
 10
-6013.272265885451
 20
-33588.98606229772
 30
0.0
 70
0
  0
VERTEX
  5
97E
  8
L_Geometry
 10
-6012.4361614644795
 20
-33586.48691322666
 30
0.0
 70
0
  0
SEQEND
  5
97C
  8
L_Geometry
  0
POLYLINE
  5
97F
  8
L_Geometry
 66
1
 10
0.0
 20
0.0
 30
0.0
 70
0
  0
VERTEX
  5
981
  8
L_Geometry
 10
-6012.309061522317
 20
-33589.228378349966
 30
0.0
 70
0
  0
VERTEX
  5
982
  8
L_Geometry
 10
-6011.72326078346
 20
-33586.69885175682
 30
0.0
 70
0
  0
SEQEND
  5
980
  8
L_Geometry
  0
POLYLINE
  5
983
  8
L_Geometry
 66
1
 10
0.0
 20
0.0
 30
0.0
 70
0
  0
VERTEX
  5
985
  8
L_Geometry
 10
-6011.307908800133
 20
-33589.44051193052
 30
0.0
 70
0
  0
VERTEX
  5
986
  8
L_Geometry
 10
-6011.086134053824
 20
-33586.78990685598
 30
0.0
 70
0
  0
SEQEND
  5
984
  8
L_Geometry
  0
POLYLINE
  5
987
  8
L_Geometry
 66
1
 10
0.0
 20
0.0
 30
0.0
 70
0
  0
VERTEX
  5
989
  8
L_Geometry
 10
-6010.3218250217915
 20
-33589.50159501698
 30
0.0
 70
0
  0
VERTEX
  5
98A
  8
L_Geometry
 10
-6010.122827715423
 20
-33586.881182522484
 30
0.0
 70
0
  0
SEQEND
  5
988
  8
L_Geometry
  0
POLYLINE
  5
98B
  8
L_Geometry
 66
1
 10
0.0
 20
0.0
 30
0.0
 70
0
  0
VERTEX
  5
98D
  8
L_Geometry
 10
-6009.3206109374605
 20
-33589.623104299535
 30
0.0
 70
0
  0
VERTEX
  5
98E
  8
L_Geometry
 10
-6009.091251207345
 20
-33586.97250425332
 30
0.0
 70
0
  0
SEQEND
  5
98C
  8
L_Geometry
  0
POLYLINE
  5
98F
  8
L_Geometry
 66
1
 10
0.0
 20
0.0
 30
0.0
 70
0
  0
VERTEX
  5
991
  8
L_Geometry
 10
-6008.334506700866
 20
-33589.65397913607
 30
0.0
 70
0
  0
VERTEX
  5
992
  8
L_Geometry
 10
-6008.287221418363
 20
-33587.03346398395
 30
0.0
 70
0
  0
SEQEND
  5
990
  8
L_Geometry
  0
POLYLINE
  5
993
  8
L_Geometry
 66
1
 10
0.0
 20
0.0
 30
0.0
 70
0
  0
VERTEX
  5
995
  8
L_Geometry
 10
-6007.325625312661
 20
-33589.65466122049
 30
0.0
 70
0
  0
VERTEX
  5
996
  8
L_Geometry
 10
-6007.323853761379
 20
-33587.0341152958
 30
0.0
 70
0
  0
SEQEND
  5
994
  8
L_Geometry
  0
POLYLINE
  5
997
  8
L_Geometry
 66
1
 10
0.0
 20
0.0
 30
0.0
 70
0
  0
VERTEX
  5
999
  8
L_Geometry
 10
-6006.347086220308
 20
-33589.65532268176
 30
0.0
 70
0
  0
VERTEX
  5
99A
  8
L_Geometry
 10
-6006.686665703415
 20
-33587.03454602756
 30
0.0
 70
0
  0
SEQEND
  5
998
  8
L_Geometry
  0
POLYLINE
  5
99B
  8
L_Geometry
 66
1
 10
0.0
 20
0.0
 30
0.0
 70
0
  0
VERTEX
  5
99D
  8
L_Geometry
 10
-6005.3684450569
 20
-33589.50494390812
 30
0.0
 70
0
  0
VERTEX
  5
99E
  8
L_Geometry
 10
-6005.708024822719
 20
-33586.88416732897
 30
0.0
 70
0
  0
SEQEND
  5
99C
  8
L_Geometry
  0
POLYLINE
  5
99F
  8
L_Geometry
 66
1
 10
0.0
 20
0.0
 30
0.0
 70
0
  0
VERTEX
  5
9A1
  8
L_Geometry
 10
-6002.608413126793
 20
-33579.930865184666
 30
0.0
 70
0
  0
VERTEX
  5
9A2
  8
L_Geometry
 10
-6005.4292892959475
 20
-33578.51673500435
 30
0.0
 70
0
  0
SEQEND
  5
9A0
  8
L_Geometry
  0
POLYLINE
  5
9A3
  8
L_Geometry
 66
1
 10
0.0
 20
0.0
 30
0.0
 70
0
  0
VERTEX
  5
9A5
  8
L_Geometry
 10
-6005.262447696771
 20
-33578.57726376387
 30
0.0
 70
0
  0
VERTEX
  5
9A6
  8
L_Geometry
 10
-6005.011797440266
 20
-33578.09410511239
 30
0.0
 70
0
  0
SEQEND
  5
9A4
  8
L_Geometry
  0
POLYLINE
  5
9A7
  8
L_Geometry
 66
1
 10
0.0
 20
0.0
 30
0.0
 70
0
  0
VERTEX
  5
9A9
  8
L_Geometry
 10
-6004.375242775619
 20
-33579.03098334381
 30
0.0
 70
0
  0
VERTEX
  5
9AA
  8
L_Geometry
 10
-6003.881548332905
 20
-33578.094868824825
 30
0.0
 70
0
  0
SEQEND
  5
9A8
  8
L_Geometry
  0
POLYLINE
  5
9AB
  8
L_Geometry
 66
1
 10
0.0
 20
0.0
 30
0.0
 70
0
  0
VERTEX
  5
9AD
  8
L_Geometry
 10
-6003.495623329834
 20
-33579.48469773467
 30
0.0
 70
0
  0
VERTEX
  5
9AE
  8
L_Geometry
 10
-6002.804398178173
 20
-33578.09559652392
 30
0.0
 70
0
  0
SEQEND
  5
9AC
  8
L_Geometry
  0
POLYLINE
  5
9AF
  8
L_Geometry
 66
1
 10
0.0
 20
0.0
 30
0.0
 70
0
  0
VERTEX
  5
9B1
  8
L_Geometry
 10
-5997.482318745274
 20
-33582.52466338213
 30
0.0
 70
0
  0
VERTEX
  5
9B2
  8
L_Geometry
 10
-6000.864304120309
 20
-33580.77786740492
 30
0.0
 70
0
  0
SEQEND
  5
9B0
  8
L_Geometry
  0
POLYLINE
  5
9B3
  8
L_Geometry
 66
1
 10
0.0
 20
0.0
 30
0.0
 70
0
  0
VERTEX
  5
9B5
  8
L_Geometry
 10
-6000.128748908936
 20
-33581.140860225365
 30
0.0
 70
0
  0
VERTEX
  5
9B6
  8
L_Geometry
 10
-5998.579238766584
 20
-33578.098449687495
 30
0.0
 70
0
  0
SEQEND
  5
9B4
  8
L_Geometry
  0
POLYLINE
  5
9B7
  8
L_Geometry
 66
1
 10
0.0
 20
0.0
 30
0.0
 70
0
  0
VERTEX
  5
9B9
  8
L_Geometry
 10
-5999.249129038106
 20
-33581.594574301824
 30
0.0
 70
0
  0
VERTEX
  5
9BA
  8
L_Geometry
 10
-5997.448989659746
 20
-33578.09921258134
 30
0.0
 70
0
  0
SEQEND
  5
9B8
  8
L_Geometry
  0
POLYLINE
  5
9BB
  8
L_Geometry
 66
1
 10
0.0
 20
0.0
 30
0.0
 70
0
  0
VERTEX
  5
9BD
  8
L_Geometry
 10
-5998.361938802736
 20
-33582.07094943597
 30
0.0
 70
0
  0
VERTEX
  5
9BE
  8
L_Geometry
 10
-5996.447898991457
 20
-33578.40196819323
 30
0.0
 70
0
  0
SEQEND
  5
9BC
  8
L_Geometry
  0
POLYLINE
  5
9BF
  8
L_Geometry
 66
1
 10
0.0
 20
0.0
 30
0.0
 70
0
  0
VERTEX
  5
9C1
  8
L_Geometry
 10
-5995.682001536421
 20
-33578.76498102715
 30
0.0
 70
0
  0
VERTEX
  5
9C2
  8
L_Geometry
 10
-5997.031783613484
 20
-33578.0994941493
 30
0.0
 70
0
  0
SEQEND
  5
9C0
  8
L_Geometry
  0
POLYLINE
  5
9C3
  8
L_Geometry
 66
1
 10
0.0
 20
0.0
 30
0.0
 70
0
  0
VERTEX
  5
9C5
  8
L_Geometry
 10
-5942.165395902155
 20
-33578.1363523235
 30
0.0
 70
0
  0
VERTEX
  5
9C6
  8
L_Geometry
 10
-5941.923546599846
 20
-33579.46566618647
 30
0.0
 70
0
  0
SEQEND
  5
9C4
  8
L_Geometry
  0
POLYLINE
  5
9C7
  8
L_Geometry
 66
1
 10
0.0
 20
0.0
 30
0.0
 70
0
  0
VERTEX
  5
9C9
  8
L_Geometry
 10
-5940.966876718347
 20
-33578.13715368501
 30
0.0
 70
0
  0
VERTEX
  5
9CA
  8
L_Geometry
 10
-5942.1200239125565
 20
-33578.347838670954
 30
0.0
 70
0
  0
SEQEND
  5
9C8
  8
L_Geometry
  0
POLYLINE
  5
9CB
  8
L_Geometry
 66
1
 10
0.0
 20
0.0
 30
0.0
 70
0
  0
VERTEX
  5
9CD
  8
L_Geometry
 10
-5937.895005716304
 20
-33578.562118901384
 30
0.0
 70
0
  0
VERTEX
  5
9CE
  8
L_Geometry
 10
-5941.9689791928995
 20
-33579.3448037851
 30
0.0
 70
0
  0
SEQEND
  5
9CC
  8
L_Geometry
  0
POLYLINE
  5
9CF
  8
L_Geometry
 66
1
 10
0.0
 20
0.0
 30
0.0
 70
0
  0
VERTEX
  5
9D1
  8
L_Geometry
 10
-5937.993335461172
 20
-33578.1391411732
 30
0.0
 70
0
  0
VERTEX
  5
9D2
  8
L_Geometry
 10
-5937.89502590167
 20
-33578.59232689285
 30
0.0
 70
0
  0
SEQEND
  5
9D0
  8
L_Geometry
  0
TEXT
  5
9D3
  8
TXT_Road_Prefectural
 10
-5926.503278128649
 20
-33615.62349923501
 30
0.0
 40
3.0801842116569227
  1
外堀通り
  7
YOKO
 11
-5926.503278128649
 21
-33615.62349923501
 31
0.0
  0
TEXT
  5
9D4
  8
TXT_Site
 10
-6014.961885881297
 20
-33589.17308791091
 30
0.0
 40
4.9799999999999995
  1
区立淡路
 50
-24.44822506457357
  7
YOKO
 11
-6014.961885881297
 21
-33589.17308791091
 31
0.0
  0
TEXT
  5
9D5
  8
TXT_Site
 10
-6017.464280790631
 20
-33594.626345626966
 30
0.0
 40
4.9799999999999995
  1
公園
 50
-24.44822506457357
  7
YOKO
 11
-6017.464280790631
 21
-33594.626345626966
 31
0.0
  0
TEXT
  5
9D6
  8
TXT_Building_Name
 10
-6029.076476746842
 20
-33611.74368919635
 30
0.0
 40
2.4202573019085123
  1
医療法人財団
 50
-24.78587615495318
  7
TATE
 11
-6029.076476746842
 21
-33611.74368919635
 31
0.0
  0
TEXT
  5
9D7
  8
TXT_Building_Name
 10
-6031.723832647828
 20
-33610.52123132551
 30
0.0
 40
2.4202573019085123
  1
神尾記念病院
 50
-24.78587615495318
  7
TATE
 11
-6031.723832647828
 21
-33610.52123132551
 31
0.0
  0
TEXT
  5
9D8
  8
TXT_Building_Name
 10
-5899.582478114324
 20
-33601.30853291176
 30
0.0
 40
1.7176289378068428
  1
医療法人
 50
-30.810810748780032
  7
YOKO
 11
-5899.582478114324
 21
-33601.30853291176
 31
0.0
  0
TEXT
  5
9D9
  8
TXT_Building_Name
 10
-5900.651126071379
 20
-33603.080690418996
 30
0.0
 40
1.7176289378068428
  1
社団亮友会
 50
-30.810810748780032
  7
YOKO
 11
-5900.651126071379
 21
-33603.080690418996
 31
0.0
  0
TEXT
  5
9DA
  8
TXT_Building_Name
 10
-5901.719774028435
 20
-33604.85284792624
 30
0.0
 40
1.7176289378068428
  1
大塩医院
 50
-30.810810748780032
  7
YOKO
 11
-5901.719774028435
 21
-33604.85284792624
 31
0.0
  0
TEXT
  5
9DB
  8
TXT_Building_Name
 10
-5908.070202298465
 20
-33495.479560303094
 30
0.0
 40
4.9799999999999995
  1
損保会館
 50
-20.395151117730478
  7
YOKO
 11
-5908.070202298465
 21
-33495.479560303094
 31
0.0
  0
TEXT
  5
9DC
  8
TXT_Building_Name
 10
-5922.239073496275
 20
-33641.014204485764
 30
0.0
 40
2.59366541970402
  1
淡路ビル
 50
-30.898836025522286
  7
YOKO
 11
-5922.239073496275
 21
-33641.014204485764
 31
0.0
  0
TEXT
  5
9DD
  8
TXT_Building_Name
 10
-5916.650975588868
 20
-33637.126025880796
 30
0.0
 40
1.981374089274453
  1
きそば
 50
-30.730555293097296
  7
YOKO
 11
-5916.650975588868
 21
-33637.126025880796
 31
0.0
  0
TEXT
  5
9DE
  8
TXT_Building_Name
 10
-5917.881208074893
 20
-33639.17181200825
 30
0.0
 40
1.981374089274453
  1
松竹庵
 50
-30.730555293097296
  7
YOKO
 11
-5917.881208074893
 21
-33639.17181200825
 31
0.0
  0
TEXT
  5
9DF
  8
TXT_Building_Name
 10
-5929.023041486904
 20
-33545.33860653716
 30
0.0
 40
2.1986535371901703
  1
ＷＡＴＥＲＲＡＳ 
 50
-24.645140676109648
  7
YOKO
 11
-5929.023041486904
 21
-33545.33860653716
 31
0.0
  0
TEXT
  5
9E0
  8
TXT_Building_Name
 10
-5930.134825942456
 20
-33547.74298405337
 30
0.0
 40
2.1986535371901703
  1
ＡＮＮＥＸ
 50
-24.645140676109648
  7
YOKO
 11
-5930.134825942456
 21
-33547.74298405337
 31
0.0
  0
TEXT
  5
9E1
  8
TXT_Building_Name
 10
-5889.481349751876
 20
-33614.993882138966
 30
0.0
 40
4.853655318186012
  1
神田淡路町
 50
-29.705423833069194
  7
TATE
 11
-5889.481349751876
 21
-33614.993882138966
 31
0.0
  0
TEXT
  5
9E2
  8
TXT_Building_Name
 10
-5894.560640417374
 20
-33612.096071253334
 30
0.0
 40
4.853655318186012
  1
二丁目ビル
 50
-29.705423833069194
  7
TATE
 11
-5894.560640417374
 21
-33612.096071253334
 31
0.0
  0
TEXT
  5
9E3
  8
TXT_Building_Name
 10
-6015.209638580204
 20
-33577.81419652683
 30
0.0
 40
2.71001112017092
  1
ＷＣ
 50
-23.56435452648899
  7
YOKO
 11
-6015.209638580204
 21
-33577.81419652683
 31
0.0
  0
TEXT
  5
9E4
  8
TXT_Building_Name
 10
-6002.506950558105
 20
-33568.81699622763
 30
0.0
 40
2.9293504547557268
  1
ＷＡＴＥＲＲＡＳ ＴＯＷＥＲ
 50
63.75032870320943
  7
YOKO
 11
-6002.506950558105
 21
-33568.81699622763
 31
0.0
  0
TEXT
  5
9E5
  8
TXT_Building_Name
 10
-5999.336386620248
 20
-33570.367399500734
 30
0.0
 40
2.9293504547557268
  1
㈱ゼンリン東京本社
 50
63.75032870320943
  7
YOKO
 11
-5999.336386620248
 21
-33570.367399500734
 31
0.0
  0
TEXT
  5
9E6
  8
TXT_Building_Name
 10
-6010.660653098909
 20
-33623.10729298576
 30
0.0
 40
3.8803546672102676
  1
淡路にこにこ
 50
-25.056711289259585
  7
YOKO
 11
-6010.660653098909
 21
-33623.10729298576
 31
0.0
  0
TEXT
  5
9E7
  8
TXT_Building_Name
 10
-6012.65094585395
 20
-33627.337604894776
 30
0.0
 40
3.8803546672102676
  1
フォーユー
 50
-25.056711289259585
  7
YOKO
 11
-6012.65094585395
 21
-33627.337604894776
 31
0.0
  0
TEXT
  5
9E8
  8
TXT_Building_Name
 10
-6014.6412386089905
 20
-33631.56791680379
 30
0.0
 40
3.8803546672102676
  1
プラザ
 50
-25.056711289259585
  7
YOKO
 11
-6014.6412386089905
 21
-33631.56791680379
 31
0.0
  0
TEXT
  5
9E9
  8
TXT_Building_Name
 10
-5967.117755065654
 20
-33639.0974293198
 30
0.0
 40
2.0625234097834606
  1
パークフロント
 50
-24.055620335267133
  7
TATE
 11
-5967.117755065654
 21
-33639.0974293198
 31
0.0
  0
TEXT
  5
9EA
  8
TXT_Building_Name
 10
-5969.386904150991
 20
-33638.08449881448
 30
0.0
 40
2.0625234097834606
  1
淡路町
 50
-24.055620335267133
  7
TATE
 11
-5969.386904150991
 21
-33638.08449881448
 31
0.0
  0
TEXT
  5
9EB
  8
TXT_Building_Name
 10
-5971.101378239115
 20
-33518.03596945522
 30
0.0
 40
1.1684937783299048
  1
ＥＶ
 50
-21.26699668143359
  7
YOKO
 11
-5971.101378239115
 21
-33518.03596945522
 31
0.0
  0
TEXT
  5
9EC
  8
TXT_Building_Name
 10
-5931.4646479542635
 20
-33534.584808360756
 30
0.0
 40
1.2631150513978888
  1
ＥＶ
 50
-24.285927920799246
  7
YOKO
 11
-5931.4646479542635
 21
-33534.584808360756
 31
0.0
  0
TEXT
  5
9ED
  8
TXT_Building_Number
 10
-5920.178968187413
 20
-33637.63819155418
 30
0.0
 40
1.5
  1
６
 50
329.1959281173558
  7
YOKO
 41
0.538431
 11
-5920.178968187413
 21
-33637.63819155418
 31
0.0
  0
TEXT
  5
9EE
  8
TXT_Building_Number
 10
-5932.140397665905
 20
-33578.41023376117
 30
0.0
 40
1.5
  1
１０５
 50
-24.681043853095446
  7
YOKO
 41
0.538431
 11
-5932.140397665905
 21
-33578.41023376117
 31
0.0
  0
TEXT
  5
9EF
  8
TXT_Building_Number
 10
-5917.467484327353
 20
-33632.80431856186
 30
0.0
 40
1.5
  1
６
 50
-29.8000087137152
  7
YOKO
 41
0.538431
 11
-5917.467484327353
 21
-33632.80431856186
 31
0.0
  0
TEXT
  5
9F0
  8
TXT_Building_Number
 10
-6013.504743551108
 20
-33569.57530489279
 30
0.0
 40
1.5
  1
１０１
 50
63.88963657701646
  7
YOKO
 41
0.538431
 11
-6013.504743551108
 21
-33569.57530489279
 31
0.0
  0
TEXT
  5
9F1
  8
TXT_Building_Number
 10
-6018.31922528672
 20
-33631.31146076772
 30
0.0
 40
1.5
  1
１０９
 50
334.8844703964067
  7
YOKO
 41
0.538431
 11
-6018.31922528672
 21
-33631.31146076772
 31
0.0
  0
TEXT
  5
9F2
  8
TXT_Building_Floor
 10
-5941.526658355496
 20
-33562.160805062646
 30
0.0
 40
1.5
  1
２Ｆ
 50
336.29736328125
  7
YOKO
 41
0.538431
 11
-5941.526658355496
 21
-33562.160805062646
 31
0.0
  0
TEXT
  5
9F3
  8
TXT_Building_Floor
 10
-5993.926136644071
 20
-33517.12685629102
 30
0.0
 40
1.5
  1
１Ｆ
 50
334.0059814453125
  7
YOKO
 41
0.538431
 11
-5993.926136644071
 21
-33517.12685629102
 31
0.0
  0
TEXT
  5
9F4
  8
TXT_Building_Floor
 10
-5971.558842540343
 20
-33519.71901182708
 30
0.0
 40
1.5
  1
２Ｆ
 50
338.68559291109426
  7
YOKO
 41
0.538431
 11
-5971.558842540343
 21
-33519.71901182708
 31
0.0
  0
TEXT
  5
9F5
  8
TXT_Building_Floor
 10
-5928.84329085091
 20
-33533.65785823382
 30
0.0
 40
1.5
  1
１Ｆ
 50
335.73321533203125
  7
YOKO
 41
0.538431
 11
-5928.84329085091
 21
-33533.65785823382
 31
0.0
  0
TEXT
  5
9F6
  8
TXT_Building_Floor
 10
-5930.150035377084
 20
-33536.004257986446
 30
0.0
 40
1.5
  1
２Ｆ
 50
335.65701955024144
  7
YOKO
 41
0.538431
 11
-5930.150035377084
 21
-33536.004257986446
 31
0.0
  0
TEXT
  5
9F7
  8
TXT_Building_Floor
 10
-5916.209184006377
 20
-33572.34181225682
 30
0.0
 40
1.5
  1
３Ｆ
 50
334.3898010253906
  7
YOKO
 41
0.538431
 11
-5916.209184006377
 21
-33572.34181225682
 31
0.0
  0
TEXT
  5
9F8
  8
TXT_Building_Floor
 10
-5923.351053542598
 20
-33581.90512029086
 30
0.0
 40
1.5
  1
１５Ｆ
 50
-24.681043853095446
  7
YOKO
 41
0.538431
 11
-5923.351053542598
 21
-33581.90512029086
 31
0.0
  0
TEXT
  5
9F9
  8
TXT_Building_Floor
 10
-6007.8212381358835
 20
-33580.71454943608
 30
0.0
 40
1.5
  1
１Ｆ
 50
336.38127402224393
  7
YOKO
 41
0.538431
 11
-6007.8212381358835
 21
-33580.71454943608
 31
0.0
  0
TEXT
  5
9FA
  8
TXT_Building_Floor
 10
-5976.157318139263
 20
-33586.60760288734
 30
0.0
 40
1.5
  1
４１Ｆ
 50
63.88963657701646
  7
YOKO
 41
0.538431
 11
-5976.157318139263
 21
-33586.60760288734
 31
0.0
  0
ENDSEC
  0
EOF
