  0
SECTION
  2
HEADER
  9
$ACADVER
  1
AC1009
  9
$DWGCODEPAGE
  3
ANSI_932
  9
$INSBASE
 10
0.0
 20
0.0
 30
0.0
  9
$EXTMIN
 10
-100
 20
-100
 30
-100
  9
$EXTMAX
 10
100
 20
100
 30
100
  9
$LIMMIN
 10
0.0
 20
0.0
  9
$LIMMAX
 10
420.0
 20
297.0
  9
$ORTHOMODE
 70
0
  9
$REGENMODE
 70
1
  9
$DRAGMODE
 70
2
  9
$FILLMODE
 70
1
  9
$QTEXTMODE
 70
0
  9
$MIRRTEXT
 70
1
  9
$OSMODE
 70
20583
  9
$LTSCALE
 40
1.0
  9
$ATTMODE
 70
1
  9
$TEXTSIZE
 40
2.5
  9
$TRACEWID
 40
1.0
  9
$TEXTSTYLE
  7
OpenSans
  9
$CLAYER
  8
0
  9
$CELTYPE
  6
ByLayer
  9
$CECOLOR
 62
256
  9
$DIMSCALE
 40
1.0
  9
$DIMASZ
 40
0.175
  9
$DIMEXO
 40
0.125
  9
$DIMDLI
 40
3.75
  9
$DIMRND
 40
0.0
  9
$DIMDLE
 40
0.0
  9
$DIMEXE
 40
0.375
  9
$DIMTP
 40
0.0
  9
$DIMTM
 40
0.0
  9
$DIMTXT
 40
0.25
  9
$DIMCEN
 40
2.5
  9
$DIMTSZ
 40
0.0
  9
$DIMTOL
 70
0
  9
$DIMLIM
 70
0
  9
$DIMTIH
 70
0
  9
$DIMTOH
 70
0
  9
$DIMSE1
 70
0
  9
$DIMSE2
 70
0
  9
$DIMTAD
 70
1
  9
$DIMZIN
 70
8
  9
$DIMBLK
  1
ARCHTICK
  9
$DIMASO
 70
1
  9
$DIMSHO
 70
1
  9
$DIMPOST
  1

  9
$DIMAPOST
  1

  9
$DIMALT
 70
0
  9
$DIMALTD
 70
3
  9
$DIMALTF
 40
0.03937007874
  9
$DIMLFAC
 40
100.0
  9
$DIMTOFL
 70
1
  9
$DIMTVP
 40
0.0
  9
$DIMTIX
 70
0
  9
$DIMSOXD
 70
0
  9
$DIMSAH
 70
0
  9
$DIMBLK1
  1

  9
$DIMBLK2
  1

  9
$DIMSTYLE
  2
BASIC
  9
$DIMCLRD
 70
0
  9
$DIMCLRE
 70
0
  9
$DIMCLRT
 70
0
  9
$DIMTFAC
 40
1.0
  9
$DIMGAP
 40
0.1
  9
$COORDS
 70
1
  9
$ATTDIA
 70
0
  9
$ATTREQ
 70
1
  9
$HANDLING
 70
1
  9
$LUNITS
 70
2
  9
$LUPREC
 70
4
  9
$SKETCHINC
 40
1.0
  9
$FILLETRAD
 40
10.0
  9
$AUNITS
 70
0
  9
$AUPREC
 70
2
  9
$MENU
  1
.
  9
$ELEVATION
 40
0.0
  9
$PELEVATION
 40
0.0
  9
$THICKNESS
 40
0.0
  9
$LIMCHECK
 70
0
  9
$CHAMFERA
 40
0.0
  9
$CHAMFERB
 40
0.0
  9
$SKPOLY
 70
0
  9
$TDCREATE
 40
2461015.71056713
  9
$TDUPDATE
 40
2461015.710578704
  9
$TDINDWG
 40
0.0
  9
$TDUSRTIMER
 40
0.0
  9
$USRTIMER
 70
1
  9
$ANGBASE
 50
0.0
  9
$ANGDIR
 70
0
  9
$PDMODE
 70
0
  9
$PDSIZE
 40
0.0
  9
$PLINEWID
 40
0.0
  9
$SPLFRAME
 70
0
  9
$SPLINETYPE
 70
6
  9
$SPLINESEGS
 70
8
  9
$HANDSEED
  5
9FB
  9
$SURFTAB1
 70
6
  9
$SURFTAB2
 70
6
  9
$SURFTYPE
 70
6
  9
$SURFU
 70
6
  9
$SURFV
 70
6
  9
$UCSNAME
  2

  9
$UCSORG
 10
0.0
 20
0.0
 30
0.0
  9
$UCSXDIR
 10
1.0
 20
0.0
 30
0.0
  9
$UCSYDIR
 10
0.0
 20
1.0
 30
0.0
  9
$PUCSNAME
  2

  9
$PUCSORG
 10
0.0
 20
0.0
 30
0.0
  9
$PUCSXDIR
 10
1.0
 20
0.0
 30
0.0
  9
$PUCSYDIR
 10
0.0
 20
1.0
 30
0.0
  9
$USERI1
 70
0
  9
$USERI2
 70
0
  9
$USERI3
 70
0
  9
$USERI4
 70
0
  9
$USERI5
 70
0
  9
$USERR1
 40
0.0
  9
$USERR2
 40
0.0
  9
$USERR3
 40
0.0
  9
$USERR4
 40
0.0
  9
$USERR5
 40
0.0
  9
$WORLDVIEW
 70
1
  9
$SHADEDGE
 70
3
  9
$SHADEDIF
 70
70
  9
$TILEMODE
 70
1
  9
$MAXACTVP
 70
64
  9
$PLIMCHECK
 70
0
  9
$PEXTMIN
 10
1e+20
 20
1e+20
 30
1e+20
  9
$PEXTMAX
 10
-1e+20
 20
-1e+20
 30
-1e+20
  9
$PLIMMIN
 10
0.0
 20
0.0
  9
$PLIMMAX
 10
420.0
 20
297.0
  9
$UNITMODE
 70
0
  9
$VISRETAIN
 70
1
  9
$PLINEGEN
 70
0
  9
$PSLTSCALE
 70
1
  0
ENDSEC
  0
SECTION
  2
TABLES
  0
TABLE
  2
VPORT
 70
1
  0
VPORT
  5
23
  2
*Active
 70
0
 10
0.0
 20
0.0
 11
1.0
 21
1.0
 12
70.0
 22
50.0
 13
0.0
 23
0.0
 14
0.5
 24
0.5
 15
0.5
 25
0.5
 16
0.0
 26
0.0
 36
1.0
 17
0.0
 27
0.0
 37
0.0
 40
1.0
 41
1.34
 42
50.0
 43
0.0
 44
0.0
 50
0.0
 51
0.0
 71
0
 72
1000
 73
1
 74
3
 75
0
 76
0
 77
0
 78
0
  0
ENDTAB
  0
TABLE
  2
LTYPE
 70
21
  0
LTYPE
  5
24
  2
ByBlock
 70
0
  3

 72
65
 73
0
 40
0.0
  0
LTYPE
  5
25
  2
ByLayer
 70
0
  3

 72
65
 73
0
 40
0.0
  0
LTYPE
  5
26
  2
Continuous
 70
0
  3

 72
65
 73
0
 40
0.0
  0
LTYPE
  5
2D
  2
CENTER
 70
0
  3
Center ____ _ ____ _ ____ _ ____ _ ____ _ ____
 72
65
 73
4
 40
2.0
 49
1.25
 49
-0.25
 49
0.25
 49
-0.25
  0
LTYPE
  5
2E
  2
CENTERX2
 70
0
  3
Center (2x) ________  __  ________  __  ________
 72
65
 73
4
 40
3.5
 49
2.5
 49
-0.25
 49
0.5
 49
-0.25
  0
LTYPE
  5
2F
  2
CENTER2
 70
0
  3
Center (.5x) ____ _ ____ _ ____ _ ____ _ ____
 72
65
 73
4
 40
1.0
 49
0.625
 49
-0.125
 49
0.125
 49
-0.125
  0
LTYPE
  5
30
  2
DASHED
 70
0
  3
Dashed __ __ __ __ __ __ __ __ __ __ __ __ __ _
 72
65
 73
2
 40
0.6
 49
0.5
 49
-0.1
  0
LTYPE
  5
31
  2
DASHEDX2
 70
0
  3
Dashed (2x) ____  ____  ____  ____  ____  ____
 72
65
 73
2
 40
1.2
 49
1.0
 49
-0.2
  0
LTYPE
  5
32
  2
DASHED2
 70
0
  3
Dashed (.5x) _ _ _ _ _ _ _ _ _ _ _ _ _ _
 72
65
 73
2
 40
0.3
 49
0.25
 49
-0.05
  0
LTYPE
  5
33
  2
PHANTOM
 70
0
  3
Phantom ______  __  __  ______  __  __  ______
 72
65
 73
6
 40
2.5
 49
1.25
 49
-0.25
 49
0.25
 49
-0.25
 49
0.25
 49
-0.25
  0
LTYPE
  5
34
  2
PHANTOMX2
 70
0
  3
Phantom (2x)____________    ____    ____    ____________
 72
65
 73
6
 40
4.25
 49
2.5
 49
-0.25
 49
0.5
 49
-0.25
 49
0.5
 49
-0.25
  0
LTYPE
  5
35
  2
PHANTOM2
 70
0
  3
Phantom (.5x) ___ _ _ ___ _ _ ___ _ _ ___ _ _ ___
 72
65
 73
6
 40
1.25
 49
0.625
 49
-0.125
 49
0.125
 49
-0.125
 49
0.125
 49
-0.125
  0
LTYPE
  5
36
  2
DASHDOT
 70
0
  3
Dash dot __ . __ . __ . __ . __ . __ . __ . __
 72
65
 73
4
 40
1.4
 49
1.0
 49
-0.2
 49
0.0
 49
-0.2
  0
LTYPE
  5
37
  2
DASHDOTX2
 70
0
  3
Dash dot (2x) ____  .  ____  .  ____  .  ____
 72
65
 73
4
 40
2.4
 49
2.0
 49
-0.2
 49
0.0
 49
-0.2
  0
LTYPE
  5
38
  2
DASHDOT2
 70
0
  3
Dash dot (.5x) _ . _ . _ . _ . _ . _ . _ . _
 72
65
 73
4
 40
0.7
 49
0.5
 49
-0.1
 49
0.0
 49
-0.1
  0
LTYPE
  5
39
  2
DOT
 70
0
  3
Dot .  .  .  .  .  .  .  .  .  .  .  .  .  .  .  .
 72
65
 73
2
 40
0.2
 49
0.0
 49
-0.2
  0
LTYPE
  5
3A
  2
DOTX2
 70
0
  3
Dot (2x) .    .    .    .    .    .    .    . 
 72
65
 73
2
 40
0.4
 49
0.0
 49
-0.4
  0
LTYPE
  5
3B
  2
DOT2
 70
0
  3
Dot (.5) . . . . . . . . . . . . . . . . . . . 
 72
65
 73
2
 40
0.1
 49
0.0
 49
-0.1
  0
LTYPE
  5
3C
  2
DIVIDE
 70
0
  3
Divide __ . . __ . . __ . . __ . . __ . . __
 72
65
 73
6
 40
1.6
 49
1.0
 49
-0.2
 49
0.0
 49
-0.2
 49
0.0
 49
-0.2
  0
LTYPE
  5
3D
  2
DIVIDEX2
 70
0
  3
Divide (2x) ____  . .  ____  . .  ____  . .  ____
 72
65
 73
6
 40
2.6
 49
2.0
 49
-0.2
 49
0.0
 49
-0.2
 49
0.0
 49
-0.2
  0
LTYPE
  5
3E
  2
DIVIDE2
 70
0
  3
Divide(.5x) _ . _ . _ . _ . _ . _ . _ . _
 72
65
 73
6
 40
0.8
 49
0.5
 49
-0.1
 49
0.0
 49
-0.1
 49
0.0
 49
-0.1
  0
ENDTAB
  0
TABLE
  2
LAYER
 70
28
  0
LAYER
  5
27
  2
0
 70
0
 62
7
  6
Continuous
  0
LAYER
  5
28
  2
Defpoints
 70
0
 62
7
  6
Continuous
  0
LAYER
  5
90
  2
P_Aisle_Sidewalk
 70
0
 62
7
  6
CONTINUOUS
  0
LAYER
  5
91
  2
P_TrafficSign
 70
0
 62
5
  6
CONTINUOUS
  0
LAYER
  5
92
  2
P_RailwayArea
 70
0
 62
18
  6
CONTINUOUS
  0
LAYER
  5
93
  2
P_Building_Facility
 70
0
 62
7
  6
CONTINUOUS
  0
LAYER
  5
94
  2
P_Building_Residential
 70
0
 62
7
  6
CONTINUOUS
  0
LAYER
  5
95
  2
P_Building_Misc
 70
0
 62
7
  6
CONTINUOUS
  0
LAYER
  5
96
  2
P_Site
 70
0
 62
18
  6
CONTINUOUS
  0
LAYER
  5
97
  2
P_Elevator
 70
0
 62
7
  6
CONTINUOUS
  0
LAYER
  5
98
  2
P_Water
 70
0
 62
151
  6
CONTINUOUS
  0
LAYER
  5
99
  2
L_Road_Prefectural
 70
0
 62
253
  6
CONTINUOUS
  0
LAYER
  5
9A
  2
L_Road_General
 70
0
 62
253
  6
CONTINUOUS
  0
LAYER
  5
9B
  2
L_Road_Misc
 70
0
 62
253
  6
CONTINUOUS
  0
LAYER
  5
9C
  2
L_Aisle_Misc
 70
0
 62
253
  6
CONTINUOUS
  0
LAYER
  5
9D
  2
L_RoadStructure
 70
0
 62
253
  6
CONTINUOUS
  0
LAYER
  5
9E
  2
L_MapSymbol
 70
0
 62
155
  6
DASHEDX2
  0
LAYER
  5
9F
  2
L_GardenRoad
 70
0
 62
253
  6
CONTINUOUS
  0
LAYER
  5
A0
  2
L_RailwayTrack
 70
0
 62
253
  6
CONTINUOUS
  0
LAYER
  5
A1
  2
L_Elevator
 70
0
 62
254
  6
CONTINUOUS
  0
LAYER
  5
A2
  2
L_Admin_Town
 70
0
 62
230
  6
DASHDOTX2
  0
LAYER
  5
A3
  2
L_Admin_TownBlock
 70
0
 62
230
  6
DASHEDX2
  0
LAYER
  5
A4
  2
L_Geometry
 70
0
 62
254
  6
CONTINUOUS
  0
LAYER
  5
A5
  2
TXT_Road_Prefectural
 70
0
 62
7
  6
Continuous
  0
LAYER
  5
A6
  2
TXT_Site
 70
0
 62
7
  6
Continuous
  0
LAYER
  5
A7
  2
TXT_Building_Name
 70
0
 62
7
  6
Continuous
  0
LAYER
  5
A8
  2
TXT_Building_Number
 70
0
 62
230
  6
Continuous
  0
LAYER
  5
A9
  2
TXT_Building_Floor
 70
0
 62
7
  6
Continuous
  0
ENDTAB
  0
TABLE
  2
STYLE
 70
28
  0
STYLE
  5
29
  2
Standard
 70
0
 40
0.0
 41
1.0
 50
0.0
 71
0
 42
2.5
  3
txt
  4

  0
STYLE
  5
3F
  2
OpenSans-Light
 70
0
 40
0.0
 41
1.0
 50
0.0
 71
0
 42
2.5
  3
OpenSans-Light.ttf
  4

  0
STYLE
  5
40
  2
OpenSans-Light-Italic
 70
0
 40
0.0
 41
1.0
 50
0.0
 71
0
 42
2.5
  3
OpenSans-LightItalic.ttf
  4

  0
STYLE
  5
41
  2
OpenSans
 70
0
 40
0.0
 41
1.0
 50
0.0
 71
0
 42
2.5
  3
OpenSans-Regular.ttf
  4

  0
STYLE
  5
42
  2
OpenSans-Italic
 70
0
 40
0.0
 41
1.0
 50
0.0
 71
0
 42
2.5
  3
OpenSans-Italic.ttf
  4

  0
STYLE
  5
43
  2
OpenSans-SemiBold
 70
0
 40
0.0
 41
1.0
 50
0.0
 71
0
 42
2.5
  3
OpenSans-SemiBold.ttf
  4

  0
STYLE
  5
44
  2
OpenSans-SemiBoldItalic
 70
0
 40
0.0
 41
1.0
 50
0.0
 71
0
 42
2.5
  3
OpenSans-SemiBoldItalic.ttf
  4

  0
STYLE
  5
45
  2
OpenSans-Bold
 70
0
 40
0.0
 41
1.0
 50
0.0
 71
0
 42
2.5
  3
OpenSans-Bold.ttf
  4

  0
STYLE
  5
46
  2
OpenSans-BoldItalic
 70
0
 40
0.0
 41
1.0
 50
0.0
 71
0
 42
2.5
  3
OpenSans-BoldItalic.ttf
  4

  0
STYLE
  5
47
  2
OpenSans-ExtraBold
 70
0
 40
0.0
 41
1.0
 50
0.0
 71
0
 42
2.5
  3
OpenSans-ExtraBold.ttf
  4

  0
STYLE
  5
48
  2
OpenSans-ExtraBoldItalic
 70
0
 40
0.0
 41
1.0
 50
0.0
 71
0
 42
2.5
  3
OpenSans-ExtraBoldItalic.ttf
  4

  0
STYLE
  5
49
  2
OpenSansCondensed-Bold
 70
0
 40
0.0
 41
1.0
 50
0.0
 71
0
 42
2.5
  3
OpenSansCondensed-Bold.ttf
  4

  0
STYLE
  5
4A
  2
OpenSansCondensed-Light
 70
0
 40
0.0
 41
1.0
 50
0.0
 71
0
 42
2.5
  3
OpenSansCondensed-Light.ttf
  4

  0
STYLE
  5
4B
  2
OpenSansCondensed-Italic
 70
0
 40
0.0
 41
1.0
 50
0.0
 71
0
 42
2.5
  3
OpenSansCondensed-LightItalic.ttf
  4

  0
STYLE
  5
4C
  2
LiberationSans
 70
0
 40
0.0
 41
1.0
 50
0.0
 71
0
 42
2.5
  3
LiberationSans-Regular.ttf
  4

  0
STYLE
  5
4D
  2
LiberationSans-Bold
 70
0
 40
0.0
 41
1.0
 50
0.0
 71
0
 42
2.5
  3
LiberationSans-Bold.ttf
  4

  0
STYLE
  5
4E
  2
LiberationSans-BoldItalic
 70
0
 40
0.0
 41
1.0
 50
0.0
 71
0
 42
2.5
  3
LiberationSans-BoldItalic.ttf
  4

  0
STYLE
  5
4F
  2
LiberationSans-Italic
 70
0
 40
0.0
 41
1.0
 50
0.0
 71
0
 42
2.5
  3
LiberationSans-Italic.ttf
  4

  0
STYLE
  5
50
  2
LiberationSerif
 70
0
 40
0.0
 41
1.0
 50
0.0
 71
0
 42
2.5
  3
LiberationSerif-Regular.ttf
  4

  0
STYLE
  5
51
  2
LiberationSerif-Bold
 70
0
 40
0.0
 41
1.0
 50
0.0
 71
0
 42
2.5
  3
LiberationSerif-Bold.ttf
  4

  0
STYLE
  5
52
  2
LiberationSerif-BoldItalic
 70
0
 40
0.0
 41
1.0
 50
0.0
 71
0
 42
2.5
  3
LiberationSerif-BoldItalic.ttf
  4

  0
STYLE
  5
53
  2
LiberationSerif-Italic
 70
0
 40
0.0
 41
1.0
 50
0.0
 71
0
 42
2.5
  3
LiberationSerif-Italic.ttf
  4

  0
STYLE
  5
54
  2
LiberationMono
 70
0
 40
0.0
 41
1.0
 50
0.0
 71
0
 42
2.5
  3
LiberationMono-Regular.ttf
  4

  0
STYLE
  5
55
  2
LiberationMono-Bold
 70
0
 40
0.0
 41
1.0
 50
0.0
 71
0
 42
2.5
  3
LiberationMono-Bold.ttf
  4

  0
STYLE
  5
56
  2
LiberationMono-BoldItalic
 70
0
 40
0.0
 41
1.0
 50
0.0
 71
0
 42
2.5
  3
LiberationMono-BoldItalic.ttf
  4

  0
STYLE
  5
57
  2
LiberationMono-Italic
 70
0
 40
0.0
 41
1.0
 50
0.0
 71
0
 42
2.5
  3
LiberationMono-Italic.ttf
  4

  0
STYLE
  5
8E
  2
TATE
 70
4
 40
0.0
 41
1.0
 50
0.0
 71
0
 42
2.5
  3
txt
  4
@extfont2
  0
STYLE
  5
8F
  2
YOKO
 70
0
 40
0.0
 41
1.0
 50
0.0
 71
0
 42
2.5
  3
txt
  4
extfont2
  0
ENDTAB
  0
TABLE
  2
VIEW
 70
0
  0
ENDTAB
  0
TABLE
  2
UCS
 70
0
  0
ENDTAB
  0
TABLE
  2
APPID
 70
1
  0
APPID
  5
2A
  2
ACAD
 70
0
  0
ENDTAB
  0
TABLE
  2
DIMSTYLE
 70
11
  0
DIMSTYLE
105
2B
  2
Standard
 70
0
  3

  4

  5

  6

  7

 40
1.0
 41
2.5
 42
0.625
 43
3.75
 44
1.25
 45
0.0
 46
0.0
 47
0.0
 48
0.0
140
2.5
141
2.5
142
0.0
143
0.03937007874
144
1.0
145
0.0
146
1.0
147
0.625
 71
0
 72
0
 73
0
 74
0
 75
0
 76
0
 77
1
 78
8
170
0
171
3
172
1
173
0
174
0
175
0
176
0
177
0
178
0
  0
DIMSTYLE
105
71
  2
BASIC
 70
0
  3

  4

  5
ARCHTICK
  6

  7

 40
1.0
 41
0.175
 42
0.125
 43
3.75
 44
0.375
 45
0.0
 46
0.0
 47
0.0
 48
0.0
140
0.25
141
2.5
142
0.0
143
0.03937007874
144
100.0
145
0.0
146
1.0
147
0.1
 71
0
 72
0
 73
0
 74
0
 75
0
 76
0
 77
1
 78
8
170
0
171
3
172
1
173
0
174
0
175
0
176
0
177
0
178
0
  0
DIMSTYLE
105
7D
  2
EZ_M_100_H25_CM
 70
0
  3

  4

  5

  6

  7

 40
1.0
 41
0.25
 42
0.125
 43
3.75
 44
0.375
 45
0.0
 46
0.0
 47
0.0
 48
0.0
140
0.25
141
2.5
142
0.125
143
0.03937007874
144
100.0
145
0.0
146
1.0
147
0.1
 71
0
 72
0
 73
0
 74
0
 75
0
 76
0
 77
1
 78
8
170
0
171
3
172
1
173
0
174
0
175
0
176
0
177
0
178
0
  0
DIMSTYLE
105
7E
  2
EZ_M_50_H25_CM
 70
0
  3

  4

  5

  6

  7

 40
1.0
 41
0.125
 42
0.0625
 43
3.75
 44
0.1875
 45
0.0
 46
0.0
 47
0.0
 48
0.0
140
0.125
141
2.5
142
0.0625
143
0.03937007874
144
100.0
145
0.0
146
1.0
147
0.05
 71
0
 72
0
 73
0
 74
0
 75
0
 76
0
 77
1
 78
8
170
0
171
3
172
1
173
0
174
0
175
0
176
0
177
0
178
0
  0
DIMSTYLE
105
7F
  2
EZ_M_25_H25_CM
 70
0
  3

  4

  5

  6

  7

 40
1.0
 41
0.0625
 42
0.03125
 43
3.75
 44
0.09375
 45
0.0
 46
0.0
 47
0.0
 48
0.0
140
0.0625
141
2.5
142
0.03125
143
0.03937007874
144
100.0
145
0.0
146
1.0
147
0.025
 71
0
 72
0
 73
0
 74
0
 75
0
 76
0
 77
1
 78
8
170
0
171
3
172
1
173
0
174
0
175
0
176
0
177
0
178
0
  0
DIMSTYLE
105
80
  2
EZ_M_20_H25_CM
 70
0
  3

  4

  5

  6

  7

 40
1.0
 41
0.05
 42
0.025
 43
3.75
 44
0.07500000000000001
 45
0.0
 46
0.0
 47
0.0
 48
0.0
140
0.05
141
2.5
142
0.025
143
0.03937007874
144
100.0
145
0.0
146
1.0
147
0.020000000000000004
 71
0
 72
0
 73
0
 74
0
 75
0
 76
0
 77
1
 78
8
170
0
171
3
172
1
173
0
174
0
175
0
176
0
177
0
178
0
  0
DIMSTYLE
105
81
  2
EZ_M_10_H25_CM
 70
0
  3

  4

  5

  6

  7

 40
1.0
 41
0.025
 42
0.0125
 43
3.75
 44
0.037500000000000006
 45
0.0
 46
0.0
 47
0.0
 48
0.0
140
0.025
141
2.5
142
0.0125
143
0.03937007874
144
100.0
145
0.0
146
1.0
147
0.010000000000000002
 71
0
 72
0
 73
0
 74
0
 75
0
 76
0
 77
1
 78
8
170
0
171
3
172
1
173
0
174
0
175
0
176
0
177
0
178
0
  0
DIMSTYLE
105
82
  2
EZ_M_5_H25_CM
 70
0
  3

  4

  5

  6

  7

 40
1.0
 41
0.0125
 42
0.00625
 43
3.75
 44
0.018750000000000003
 45
0.0
 46
0.0
 47
0.0
 48
0.0
140
0.0125
141
2.5
142
0.00625
143
0.03937007874
144
100.0
145
0.0
146
1.0
147
0.005000000000000001
 71
0
 72
0
 73
0
 74
0
 75
0
 76
0
 77
1
 78
8
170
0
171
3
172
1
173
0
174
0
175
0
176
0
177
0
178
0
  0
DIMSTYLE
105
83
  2
EZ_M_1_H25_CM
 70
0
  3

  4

  5

  6

  7

 40
1.0
 41
0.0025
 42
0.00125
 43
3.75
 44
0.00375
 45
0.0
 46
0.0
 47
0.0
 48
0.0
140
0.0025
141
2.5
142
0.00125
143
0.03937007874
144
100.0
145
0.0
146
1.0
147
0.001
 71
0
 72
0
 73
0
 74
0
 75
0
 76
0
 77
1
 78
8
170
0
171
3
172
1
173
0
174
0
175
0
176
0
177
0
178
0
  0
DIMSTYLE
105
84
  2
EZ_RADIUS
 70
0
  3

  4

  5
CLOSEDBLANK
  6

  7

 40
1.0
 41
0.25
 42
0.125
 43
3.75
 44
0.375
 45
0.0
 46
0.0
 47
0.0
 48
0.0
140
0.25
141
0.0
142
0.0
143
0.03937007874
144
100.0
145
0.0
146
1.0
147
0.1
 71
0
 72
0
 73
0
 74
0
 75
0
 76
0
 77
1
 78
8
170
0
171
3
172
0
173
0
174
0
175
0
176
0
177
0
178
0
  0
DIMSTYLE
105
8D
  2
EZ_RADIUS_INSIDE
 70
0
  3

  4

  5
CLOSEDBLANK
  6

  7

 40
1.0
 41
0.25
 42
0.125
 43
3.75
 44
0.375
 45
0.0
 46
0.0
 47
0.0
 48
0.0
140
0.25
141
0.0
142
0.0
143
0.03937007874
144
100.0
145
0.0
146
1.0
147
0.1
 71
0
 72
0
 73
0
 74
0
 75
0
 76
0
 77
0
 78
8
170
0
171
3
172
0
173
0
174
1
175
0
176
0
177
0
178
0
  0
ENDTAB
  0
ENDSEC
  0
SECTION
  2
BLOCKS
  0
BLOCK
  5
18
  8
0
  2
$Model_Space
 70
0
 10
0.0
 20
0.0
 30
0.0
  3
$Model_Space
  1

  0
ENDBLK
  5
19
  8
0
  0
BLOCK
  5
1C
  8
0
  2
$Paper_Space
 70
0
 10
0.0
 20
0.0
 30
0.0
  3
$Paper_Space
  1

  0
ENDBLK
  5
1D
  8
0
  0
BLOCK
  5
73
  8
0
  2
_ARCHTICK
 70
0
 10
0.0
 20
0.0
 30
0.0
  3
_ARCHTICK
  1

  0
POLYLINE
  5
75
  8
0
  6
BYBLOCK
 62
0
 66
1
 10
0.0
 20
0.0
 30
0.0
 70
0
 40
0.15
 41
0.15
  0
VERTEX
  5
77
  8
0
  6
BYBLOCK
 10
-0.5
 20
-0.5000000000000001
 30
0.0
 70
0
  0
VERTEX
  5
78
  8
0
  6
BYBLOCK
 10
0.5000000000000001
 20
0.5
 30
0.0
 70
0
  0
SEQEND
  5
76
  8
0
  0
ENDBLK
  5
74
  8
0
  0
BLOCK
  5
7A
  8
0
  2
_CLOSEDFILLED
 70
0
 10
0.0
 20
0.0
 30
0.0
  3
_CLOSEDFILLED
  1

  0
SOLID
  5
7C
  8
0
  6
BYBLOCK
 62
0
 10
-1.0
 20
0.1643989837240255
 30
0.0
 11
0.0
 21
0.0
 31
0.0
 12
-1.0
 22
-0.1643989837240255
 32
0.0
 13
-1.0
 23
-0.1643989837240255
 33
0.0
  0
ENDBLK
  5
7B
  8
0
  0
BLOCK
  5
86
  8
0
  2
_CLOSEDBLANK
 70
0
 10
0.0
 20
0.0
 30
0.0
  3
_CLOSEDBLANK
  1

  0
POLYLINE
  5
88
  8
0
  6
BYBLOCK
 62
0
 66
1
 10
0.0
 20
0.0
 30
0.0
 70
1
  0
VERTEX
  5
8A
  8
0
  6
BYBLOCK
 10
-1.0
 20
0.1643989837240255
 30
0.0
 70
0
  0
VERTEX
  5
8B
  8
0
  6
BYBLOCK
 10
0.0
 20
0.0
 30
0.0
 70
0
  0
VERTEX
  5
8C
  8
0
  6
BYBLOCK
 10
-1.0
 20
-0.1643989837240255
 30
0.0
 70
0
  0
SEQEND
  5
89
  8
0
  0
ENDBLK
  5
87
  8
0
  0
ENDSEC
  0
SECTION
  2
ENTITIES
  0
POLYLINE
  5
AA
  8
P_Aisle_Sidewalk
 66
1
 10
0.0
 20
0.0
 30
0.0
 70
1
  0
VERTEX
  5
AC
  8
P_Aisle_Sidewalk
 10
165.68246406600446
 20
2338.6381003143356
 30
0.0
 70
0
  0
VERTEX
  5
AD
  8
P_Aisle_Sidewalk
 10
173.26881126669971
 20
2365.82811404924
 30
0.0
 70
0
  0
VERTEX
  5
AE
  8
P_Aisle_Sidewalk
 10
229.4077611012775
 20
2588.6351386158394
 30
0.0
 70
0
  0
VERTEX
  5
AF
  8
P_Aisle_Sidewalk
 10
243.821786370746
 20
2735.914323514546
 30
0.0
 70
0
  0
VERTEX
  5
B0
  8
P_Aisle_Sidewalk
 10
202.09683906570422
 20
2852.982362505019
 30
0.0
 70
0
  0
VERTEX
  5
B1
  8
P_Aisle_Sidewalk
 10
104.23293559224302
 20
2958.721216088425
 30
0.0
 70
0
  0
VERTEX
  5
B2
  8
P_Aisle_Sidewalk
 10
-3001.6129183086937
 20
4355.233475807279
 30
0.0
 70
0
  0
VERTEX
  5
B3
  8
P_Aisle_Sidewalk
 10
-3286.1000160034782
 20
4484.3867416929115
 30
0.0
 70
0
  0
VERTEX
  5
B4
  8
P_Aisle_Sidewalk
 10
-3394.5845496838856
 20
4496.471570131504
 30
0.0
 70
0
  0
VERTEX
  5
B5
  8
P_Aisle_Sidewalk
 10
-3485.620511502661
 20
4508.556343337093
 30
0.0
 70
0
  0
VERTEX
  5
B6
  8
P_Aisle_Sidewalk
 10
-3561.483997265438
 20
4472.303381248468
 30
0.0
 70
0
  0
VERTEX
  5
B7
  8
P_Aisle_Sidewalk
 10
-3597.8984754180183
 20
4454.176896097088
 30
0.0
 70
0
  0
VERTEX
  5
B8
  8
P_Aisle_Sidewalk
 10
-3688.934950507521
 20
4343.1516402894695
 30
0.0
 70
0
  0
VERTEX
  5
B9
  8
P_Aisle_Sidewalk
 10
-3799.6963358346998
 20
4135.451063164168
 30
0.0
 70
0
  0
VERTEX
  5
BA
  8
P_Aisle_Sidewalk
 10
-3426.4481165052794
 20
4246.4752007158595
 30
0.0
 70
0
  0
VERTEX
  5
BB
  8
P_Aisle_Sidewalk
 10
-3132.098809642781
 20
4093.152968365611
 30
0.0
 70
0
  0
VERTEX
  5
BC
  8
P_Aisle_Sidewalk
 10
-1572.3490324690329
 20
3398.294056816731
 30
0.0
 70
0
  0
VERTEX
  5
BD
  8
P_Aisle_Sidewalk
 10
-1349.3106891021669
 20
3295.575980853246
 30
0.0
 70
0
  0
VERTEX
  5
BE
  8
P_Aisle_Sidewalk
 10
-30.804052710914416
 20
2760.0831794423407
 30
0.0
 70
0
  0
VERTEX
  5
BF
  8
P_Aisle_Sidewalk
 10
165.68246406600446
 20
2338.6381003143356
 30
0.0
 70
0
  0
SEQEND
  5
AB
  8
P_Aisle_Sidewalk
  0
POLYLINE
  5
C0
  8
P_Aisle_Sidewalk
 66
1
 10
0.0
 20
0.0
 30
0.0
 70
1
  0
VERTEX
  5
C2
  8
P_Aisle_Sidewalk
 10
1258.1170925446033
 20
2437.580404189317
 30
0.0
 70
0
  0
VERTEX
  5
C3
  8
P_Aisle_Sidewalk
 10
1085.9069086139398
 20
2437.580177025879
 30
0.0
 70
0
  0
VERTEX
  5
C4
  8
P_Aisle_Sidewalk
 10
1000.1811944778798
 20
2383.955333870406
 30
0.0
 70
0
  0
VERTEX
  5
C5
  8
P_Aisle_Sidewalk
 10
931.904135629146
 20
2278.216321527514
 30
0.0
 70
0
  0
VERTEX
  5
C6
  8
P_Aisle_Sidewalk
 10
835.5576666131087
 20
2049.3669098978453
 30
0.0
 70
0
  0
VERTEX
  5
C7
  8
P_Aisle_Sidewalk
 10
823.4195211444819
 20
2025.1979906645292
 30
0.0
 70
0
  0
VERTEX
  5
C8
  8
P_Aisle_Sidewalk
 10
1211.8408969070542
 20
2034.261776081528
 30
0.0
 70
0
  0
VERTEX
  5
C9
  8
P_Aisle_Sidewalk
 10
2809.5297187198958
 20
1266.902228278375
 30
0.0
 70
0
  0
VERTEX
  5
CA
  8
P_Aisle_Sidewalk
 10
4464.87781990759
 20
475.3762344767562
 30
0.0
 70
0
  0
VERTEX
  5
CB
  8
P_Aisle_Sidewalk
 10
4474.741007781249
 20
294.8644187841767
 30
0.0
 70
0
  0
VERTEX
  5
CC
  8
P_Aisle_Sidewalk
 10
4548.327873077265
 20
475.37665750492914
 30
0.0
 70
0
  0
VERTEX
  5
CD
  8
P_Aisle_Sidewalk
 10
4562.741802412856
 20
508.60903727187304
 30
0.0
 70
0
  0
VERTEX
  5
CE
  8
P_Aisle_Sidewalk
 10
4577.913624620643
 20
686.0998189359244
 30
0.0
 70
0
  0
VERTEX
  5
CF
  8
P_Aisle_Sidewalk
 10
4546.050038497703
 20
851.5058538070949
 30
0.0
 70
0
  0
VERTEX
  5
D0
  8
P_Aisle_Sidewalk
 10
4489.151719056879
 20
966.30802226478
 30
0.0
 70
0
  0
VERTEX
  5
D1
  8
P_Aisle_Sidewalk
 10
4297.974934165013
 20
1050.1430736420018
 30
0.0
 70
0
  0
VERTEX
  5
D2
  8
P_Aisle_Sidewalk
 10
1359.0156347922534
 20
2395.284981606052
 30
0.0
 70
0
  0
VERTEX
  5
D3
  8
P_Aisle_Sidewalk
 10
1258.1170925446033
 20
2437.580404189317
 30
0.0
 70
0
  0
SEQEND
  5
C1
  8
P_Aisle_Sidewalk
  0
POLYLINE
  5
D4
  8
P_Aisle_Sidewalk
 66
1
 10
0.0
 20
0.0
 30
0.0
 70
1
  0
VERTEX
  5
D6
  8
P_Aisle_Sidewalk
 10
5078.615183547154
 20
448.1894599451901
 30
0.0
 70
0
  0
VERTEX
  5
D7
  8
P_Aisle_Sidewalk
 10
5009.5796501544155
 20
373.41637306607396
 30
0.0
 70
0
  0
VERTEX
  5
D8
  8
P_Aisle_Sidewalk
 10
6686.931552943686
 20
-376.56572285513164
 30
0.0
 70
0
  0
VERTEX
  5
D9
  8
P_Aisle_Sidewalk
 10
7339.362223704066
 20
-662.0566153339981
 30
0.0
 70
0
  0
VERTEX
  5
DA
  8
P_Aisle_Sidewalk
 10
7376.53463061522
 20
-560.0934252141841
 30
0.0
 70
0
  0
VERTEX
  5
DB
  8
P_Aisle_Sidewalk
 10
7381.085679050062
 20
-466.43860244812186
 30
0.0
 70
0
  0
VERTEX
  5
DC
  8
P_Aisle_Sidewalk
 10
7349.222229409454
 20
-385.6238577940442
 30
0.0
 70
0
  0
VERTEX
  5
DD
  8
P_Aisle_Sidewalk
 10
7217.218505365415
 20
-288.9490517011661
 30
0.0
 70
0
  0
VERTEX
  5
DE
  8
P_Aisle_Sidewalk
 10
7050.317638341934
 20
-211.15652001703785
 30
0.0
 70
0
  0
VERTEX
  5
DF
  8
P_Aisle_Sidewalk
 10
5331.2405727083715
 20
562.993449180145
 30
0.0
 70
0
  0
VERTEX
  5
E0
  8
P_Aisle_Sidewalk
 10
5201.513808332673
 20
541.8448506198475
 30
0.0
 70
0
  0
VERTEX
  5
E1
  8
P_Aisle_Sidewalk
 10
5078.615183547154
 20
448.1894599451901
 30
0.0
 70
0
  0
SEQEND
  5
D5
  8
P_Aisle_Sidewalk
  0
POLYLINE
  5
E2
  8
P_Aisle_Sidewalk
 66
1
 10
0.0
 20
0.0
 30
0.0
 70
1
  0
VERTEX
  5
E4
  8
P_Aisle_Sidewalk
 10
11739.418195826014
 20
2621.189593713299
 30
0.0
 70
0
  0
VERTEX
  5
E5
  8
P_Aisle_Sidewalk
 10
12493.10409725838
 20
3900.6396943491745
 30
0.0
 70
0
  0
VERTEX
  5
E6
  8
P_Aisle_Sidewalk
 10
12348.204430505048
 20
3942.933169473314
 30
0.0
 70
0
  0
VERTEX
  5
E7
  8
P_Aisle_Sidewalk
 10
12261.720334265116
 20
3930.8475437675306
 30
0.0
 70
0
  0
VERTEX
  5
E8
  8
P_Aisle_Sidewalk
 10
12171.44314880192
 20
3912.7196596632557
 30
0.0
 70
0
  0
VERTEX
  5
E9
  8
P_Aisle_Sidewalk
 10
12102.408532477226
 20
3834.1699265271072
 30
0.0
 70
0
  0
VERTEX
  5
EA
  8
P_Aisle_Sidewalk
 10
11739.410483828866
 20
3205.019208947773
 30
0.0
 70
0
  0
VERTEX
  5
EB
  8
P_Aisle_Sidewalk
 10
9718.446405328545
 20
-294.96746247060395
 30
0.0
 70
0
  0
VERTEX
  5
EC
  8
P_Aisle_Sidewalk
 10
9505.273451040963
 20
-686.2050705263408
 30
0.0
 70
0
  0
VERTEX
  5
ED
  8
P_Aisle_Sidewalk
 10
9487.825296869176
 20
-734.5432212010775
 30
0.0
 70
0
  0
VERTEX
  5
EE
  8
P_Aisle_Sidewalk
 10
9502.998958856682
 20
-819.1345026375387
 30
0.0
 70
0
  0
VERTEX
  5
EF
  8
P_Aisle_Sidewalk
 10
9544.724979042734
 20
-905.9913500463298
 30
0.0
 70
0
  0
VERTEX
  5
F0
  8
P_Aisle_Sidewalk
 10
9635.004083186615
 20
-1014.7508255350696
 30
0.0
 70
0
  0
VERTEX
  5
F1
  8
P_Aisle_Sidewalk
 10
10072.729237827476
 20
-217.16964605002227
 30
0.0
 70
0
  0
VERTEX
  5
F2
  8
P_Aisle_Sidewalk
 10
11739.418195826014
 20
2621.189593713299
 30
0.0
 70
0
  0
SEQEND
  5
E3
  8
P_Aisle_Sidewalk
  0
POLYLINE
  5
F3
  8
P_Aisle_Sidewalk
 66
1
 10
0.0
 20
0.0
 30
0.0
 70
1
  0
VERTEX
  5
F5
  8
P_Aisle_Sidewalk
 10
11221.228063039778
 20
5980.652641882069
 30
0.0
 70
0
  0
VERTEX
  5
F6
  8
P_Aisle_Sidewalk
 10
10813.851358205493
 20
5260.870174654466
 30
0.0
 70
0
  0
VERTEX
  5
F7
  8
P_Aisle_Sidewalk
 10
10637.093269436473
 20
4981.416002261492
 30
0.0
 70
0
  0
VERTEX
  5
F8
  8
P_Aisle_Sidewalk
 10
8206.470966024233
 20
884.764407645608
 30
0.0
 70
0
  0
VERTEX
  5
F9
  8
P_Aisle_Sidewalk
 10
7975.849551684033
 20
430.08402508356755
 30
0.0
 70
0
  0
VERTEX
  5
FA
  8
P_Aisle_Sidewalk
 10
7761.917155882644
 20
63.01610640751587
 30
0.0
 70
0
  0
VERTEX
  5
FB
  8
P_Aisle_Sidewalk
 10
7882.5404704285265
 20
63.01716815582934
 30
0.0
 70
0
  0
VERTEX
  5
FC
  8
P_Aisle_Sidewalk
 10
8044.12986533588
 20
99.27205723904063
 30
0.0
 70
0
  0
VERTEX
  5
FD
  8
P_Aisle_Sidewalk
 10
8095.716807699091
 20
141.56820521577754
 30
0.0
 70
0
  0
VERTEX
  5
FE
  8
P_Aisle_Sidewalk
 10
8167.028121530487
 20
204.25709352499814
 30
0.0
 70
0
  0
VERTEX
  5
FF
  8
P_Aisle_Sidewalk
 10
8346.06355669985
 20
514.6787510060373
 30
0.0
 70
0
  0
VERTEX
  5
100
  8
P_Aisle_Sidewalk
 10
11496.611532499768
 20
5980.656161640751
 30
0.0
 70
0
  0
VERTEX
  5
101
  8
P_Aisle_Sidewalk
 10
11739.368252327913
 20
6402.102717331102
 30
0.0
 70
0
  0
VERTEX
  5
102
  8
P_Aisle_Sidewalk
 10
12322.36275842078
 20
7413.422864046834
 30
0.0
 70
0
  0
VERTEX
  5
103
  8
P_Aisle_Sidewalk
 10
13980.684754637514
 20
10286.882160466535
 30
0.0
 70
0
  0
VERTEX
  5
104
  8
P_Aisle_Sidewalk
 10
14012.545435608728
 20
10395.641741464478
 30
0.0
 70
0
  0
VERTEX
  5
105
  8
P_Aisle_Sidewalk
 10
14017.0960621439
 20
10468.147858532375
 30
0.0
 70
0
  0
VERTEX
  5
106
  8
P_Aisle_Sidewalk
 10
14007.232667901446
 20
10545.94064117262
 30
0.0
 70
0
  0
VERTEX
  5
107
  8
P_Aisle_Sidewalk
 10
13955.644571298802
 20
10633.55128569757
 30
0.0
 70
0
  0
VERTEX
  5
108
  8
P_Aisle_Sidewalk
 10
13875.2289588204
 20
10699.258612862986
 30
0.0
 70
0
  0
VERTEX
  5
109
  8
P_Aisle_Sidewalk
 10
13521.718551731155
 20
10022.530019565258
 30
0.0
 70
0
  0
VERTEX
  5
10A
  8
P_Aisle_Sidewalk
 10
13354.82467627554
 20
9727.216231208917
 30
0.0
 70
0
  0
VERTEX
  5
10B
  8
P_Aisle_Sidewalk
 10
13040.00151967609
 20
9191.723619148084
 30
0.0
 70
0
  0
VERTEX
  5
10C
  8
P_Aisle_Sidewalk
 10
12032.565745728236
 20
7413.418893076984
 30
0.0
 70
0
  0
VERTEX
  5
10D
  8
P_Aisle_Sidewalk
 10
11739.361737509873
 20
6895.296961756493
 30
0.0
 70
0
  0
VERTEX
  5
10E
  8
P_Aisle_Sidewalk
 10
11221.228063039778
 20
5980.652641882069
 30
0.0
 70
0
  0
SEQEND
  5
F4
  8
P_Aisle_Sidewalk
  0
POLYLINE
  5
10F
  8
P_Aisle_Sidewalk
 66
1
 10
0.0
 20
0.0
 30
0.0
 70
1
  0
VERTEX
  5
111
  8
P_Aisle_Sidewalk
 10
13322.259794132136
 20
5980.681653867948
 30
0.0
 70
0
  0
VERTEX
  5
112
  8
P_Aisle_Sidewalk
 10
12509.784804984341
 20
4556.9752349646915
 30
0.0
 70
0
  0
VERTEX
  5
113
  8
P_Aisle_Sidewalk
 10
12480.199546323054
 20
4454.2572425588305
 30
0.0
 70
0
  0
VERTEX
  5
114
  8
P_Aisle_Sidewalk
 10
12485.51128549463
 20
4361.358322065364
 30
0.0
 70
0
  0
VERTEX
  5
115
  8
P_Aisle_Sidewalk
 10
12509.788664198735
 20
4282.809912467812
 30
0.0
 70
0
  0
VERTEX
  5
116
  8
P_Aisle_Sidewalk
 10
12603.101871196752
 20
4192.933324544994
 30
0.0
 70
0
  0
VERTEX
  5
117
  8
P_Aisle_Sidewalk
 10
13653.782042386612
 20
5980.686685453125
 30
0.0
 70
0
  0
VERTEX
  5
118
  8
P_Aisle_Sidewalk
 10
14492.805832423977
 20
7413.455608650899
 30
0.0
 70
0
  0
VERTEX
  5
119
  8
P_Aisle_Sidewalk
 10
14906.247834733773
 20
8120.020854837796
 30
0.0
 70
0
  0
VERTEX
  5
11A
  8
P_Aisle_Sidewalk
 10
14734.03820113476
 20
8153.250005527452
 30
0.0
 70
0
  0
VERTEX
  5
11B
  8
P_Aisle_Sidewalk
 10
14655.89933065032
 20
8150.227620556258
 30
0.0
 70
0
  0
VERTEX
  5
11C
  8
P_Aisle_Sidewalk
 10
14508.726533128149
 20
8059.592413675902
 30
0.0
 70
0
  0
VERTEX
  5
11D
  8
P_Aisle_Sidewalk
 10
14140.042452737664
 20
7413.4499259535605
 30
0.0
 70
0
  0
VERTEX
  5
11E
  8
P_Aisle_Sidewalk
 10
13322.259794132136
 20
5980.681653867948
 30
0.0
 70
0
  0
SEQEND
  5
110
  8
P_Aisle_Sidewalk
  0
POLYLINE
  5
11F
  8
P_Aisle_Sidewalk
 66
1
 10
0.0
 20
0.0
 30
0.0
 70
1
  0
VERTEX
  5
121
  8
P_Aisle_Sidewalk
 10
-293.2885563855096
 20
12366.787341607785
 30
0.0
 70
0
  0
VERTEX
  5
122
  8
P_Aisle_Sidewalk
 10
-153.70121688419957
 20
12526.149194130774
 30
0.0
 70
0
  0
VERTEX
  5
123
  8
P_Aisle_Sidewalk
 10
1025.2017618696411
 20
14862.195424409912
 30
0.0
 70
0
  0
VERTEX
  5
124
  8
P_Aisle_Sidewalk
 10
1069.2018931480882
 20
14939.988032995381
 30
0.0
 70
0
  0
VERTEX
  5
125
  8
P_Aisle_Sidewalk
 10
1095.7536164260996
 20
15048.746579861512
 30
0.0
 70
0
  0
VERTEX
  5
126
  8
P_Aisle_Sidewalk
 10
1091.2017558179525
 20
15141.644461832853
 30
0.0
 70
0
  0
VERTEX
  5
127
  8
P_Aisle_Sidewalk
 10
1022.1667336264134
 20
15322.90852280657
 30
0.0
 70
0
  0
VERTEX
  5
128
  8
P_Aisle_Sidewalk
 10
912.1662011080465
 20
15349.342754223639
 30
0.0
 70
0
  0
VERTEX
  5
129
  8
P_Aisle_Sidewalk
 10
523.7506244542344
 20
15370.489920762051
 30
0.0
 70
0
  0
VERTEX
  5
12A
  8
P_Aisle_Sidewalk
 10
742.2347411244612
 20
14930.924489541434
 30
0.0
 70
0
  0
VERTEX
  5
12B
  8
P_Aisle_Sidewalk
 10
-473.0829981202212
 20
12526.149306791944
 30
0.0
 70
0
  0
VERTEX
  5
12C
  8
P_Aisle_Sidewalk
 10
-566.3941836601296
 20
12339.597764850929
 30
0.0
 70
0
  0
VERTEX
  5
12D
  8
P_Aisle_Sidewalk
 10
-475.3589924103785
 20
12312.408001788895
 30
0.0
 70
0
  0
VERTEX
  5
12E
  8
P_Aisle_Sidewalk
 10
-408.59983897676864
 20
12312.40796857828
 30
0.0
 70
0
  0
VERTEX
  5
12F
  8
P_Aisle_Sidewalk
 10
-374.46163168179737
 20
12321.471190264567
 30
0.0
 70
0
  0
VERTEX
  5
130
  8
P_Aisle_Sidewalk
 10
-352.461452983802
 20
12330.53441789902
 30
0.0
 70
0
  0
VERTEX
  5
131
  8
P_Aisle_Sidewalk
 10
-310.73697537176025
 20
12351.681953648831
 30
0.0
 70
0
  0
VERTEX
  5
132
  8
P_Aisle_Sidewalk
 10
-293.2885563855096
 20
12366.787341607785
 30
0.0
 70
0
  0
SEQEND
  5
120
  8
P_Aisle_Sidewalk
  0
POLYLINE
  5
133
  8
P_Aisle_Sidewalk
 66
1
 10
0.0
 20
0.0
 30
0.0
 70
1
  0
VERTEX
  5
135
  8
P_Aisle_Sidewalk
 10
-2780.845473733184
 20
5980.586150832191
 30
0.0
 70
0
  0
VERTEX
  5
136
  8
P_Aisle_Sidewalk
 10
-3028.919869201568
 20
5486.63693948391
 30
0.0
 70
0
  0
VERTEX
  5
137
  8
P_Aisle_Sidewalk
 10
-3122.232288150235
 20
5312.168610982571
 30
0.0
 70
0
  0
VERTEX
  5
138
  8
P_Aisle_Sidewalk
 10
-3132.095011233648
 20
5170.932093985522
 30
0.0
 70
0
  0
VERTEX
  5
139
  8
P_Aisle_Sidewalk
 10
-3097.1983114188233
 20
5053.10894878585
 30
0.0
 70
0
  0
VERTEX
  5
13A
  8
P_Aisle_Sidewalk
 10
-3080.50847039074
 20
5028.940063683698
 30
0.0
 70
0
  0
VERTEX
  5
13B
  8
P_Aisle_Sidewalk
 10
-3057.7496036859957
 20
4993.4420191623185
 30
0.0
 70
0
  0
VERTEX
  5
13C
  8
P_Aisle_Sidewalk
 10
-2874.1607623319073
 20
4887.702775761354
 30
0.0
 70
0
  0
VERTEX
  5
13D
  8
P_Aisle_Sidewalk
 10
-2745.9519492453733
 20
4830.301394265643
 30
0.0
 70
0
  0
VERTEX
  5
13E
  8
P_Aisle_Sidewalk
 10
1228.5294344652436
 20
3078.8111893346036
 30
0.0
 70
0
  0
VERTEX
  5
13F
  8
P_Aisle_Sidewalk
 10
1582.0534473688338
 20
2922.4692925219288
 30
0.0
 70
0
  0
VERTEX
  5
140
  8
P_Aisle_Sidewalk
 10
1999.3029767378787
 20
2738.9376499960485
 30
0.0
 70
0
  0
VERTEX
  5
141
  8
P_Aisle_Sidewalk
 10
7307.491765953718
 20
270.7142410301776
 30
0.0
 70
0
  0
VERTEX
  5
142
  8
P_Aisle_Sidewalk
 10
7735.3647225443865
 20
78.12147595546855
 30
0.0
 70
0
  0
VERTEX
  5
143
  8
P_Aisle_Sidewalk
 10
7761.917155882644
 20
63.01610640751587
 30
0.0
 70
0
  0
VERTEX
  5
144
  8
P_Aisle_Sidewalk
 10
7975.849551684033
 20
430.08402508356755
 30
0.0
 70
0
  0
VERTEX
  5
145
  8
P_Aisle_Sidewalk
 10
7209.623705513352
 20
749.5607486019481
 30
0.0
 70
0
  0
VERTEX
  5
146
  8
P_Aisle_Sidewalk
 10
6580.711840217016
 20
1035.0514602281273
 30
0.0
 70
0
  0
VERTEX
  5
147
  8
P_Aisle_Sidewalk
 10
5517.859295804516
 20
1516.9122396090752
 30
0.0
 70
0
  0
VERTEX
  5
148
  8
P_Aisle_Sidewalk
 10
5090.746010302857
 20
1733.6746842914763
 30
0.0
 70
0
  0
VERTEX
  5
149
  8
P_Aisle_Sidewalk
 10
3384.571155633815
 20
2522.1770951321746
 30
0.0
 70
0
  0
VERTEX
  5
14A
  8
P_Aisle_Sidewalk
 10
2664.625545105772
 20
2822.775225734057
 30
0.0
 70
0
  0
VERTEX
  5
14B
  8
P_Aisle_Sidewalk
 10
2016.7507672987288
 20
3096.939288493542
 30
0.0
 70
0
  0
VERTEX
  5
14C
  8
P_Aisle_Sidewalk
 10
1719.3657626774432
 20
3220.048885060639
 30
0.0
 70
0
  0
VERTEX
  5
14D
  8
P_Aisle_Sidewalk
 10
1343.8414278039281
 20
3389.2303550281677
 30
0.0
 70
0
  0
VERTEX
  5
14E
  8
P_Aisle_Sidewalk
 10
1140.5273041920439
 20
3479.108057666335
 30
0.0
 70
0
  0
VERTEX
  5
14F
  8
P_Aisle_Sidewalk
 10
462.30809737861983
 20
3783.4840913593707
 30
0.0
 70
0
  0
VERTEX
  5
150
  8
P_Aisle_Sidewalk
 10
-173.42715579495996
 20
4078.0419331150897
 30
0.0
 70
0
  0
VERTEX
  5
151
  8
P_Aisle_Sidewalk
 10
-477.63922212973273
 20
4219.278768410035
 30
0.0
 70
0
  0
VERTEX
  5
152
  8
P_Aisle_Sidewalk
 10
-668.8148358867663
 20
4306.890966327859
 30
0.0
 70
0
  0
VERTEX
  5
153
  8
P_Aisle_Sidewalk
 10
-833.4382571921884
 20
4376.376537329587
 30
0.0
 70
0
  0
VERTEX
  5
154
  8
P_Aisle_Sidewalk
 10
-1086.8217230884854
 20
4481.360225646964
 30
0.0
 70
0
  0
VERTEX
  5
155
  8
P_Aisle_Sidewalk
 10
-1155.0986882544873
 20
4514.592469101683
 30
0.0
 70
0
  0
VERTEX
  5
156
  8
P_Aisle_Sidewalk
 10
-1356.8950246355123
 20
4611.268114169752
 30
0.0
 70
0
  0
VERTEX
  5
157
  8
P_Aisle_Sidewalk
 10
-1555.6567748560394
 20
4713.230722289474
 30
0.0
 70
0
  0
VERTEX
  5
158
  8
P_Aisle_Sidewalk
 10
-2186.838901946502
 20
5005.523863389949
 30
0.0
 70
0
  0
VERTEX
  5
159
  8
P_Aisle_Sidewalk
 10
-2424.290713509282
 20
5119.571130071365
 30
0.0
 70
0
  0
VERTEX
  5
15A
  8
P_Aisle_Sidewalk
 10
-2559.327175192556
 20
5186.035774607303
 30
0.0
 70
0
  0
VERTEX
  5
15B
  8
P_Aisle_Sidewalk
 10
-2677.6733246922367
 20
5375.610310357179
 30
0.0
 70
0
  0
VERTEX
  5
15C
  8
P_Aisle_Sidewalk
 10
-2370.42548226382
 20
5980.5849613398495
 30
0.0
 70
0
  0
VERTEX
  5
15D
  8
P_Aisle_Sidewalk
 10
-2080.62664216413
 20
6561.390565345177
 30
0.0
 70
0
  0
VERTEX
  5
15E
  8
P_Aisle_Sidewalk
 10
-1651.9981758995668
 20
7413.33897176776
 30
0.0
 70
0
  0
VERTEX
  5
15F
  8
P_Aisle_Sidewalk
 10
-74.80422119755352
 20
10545.830256807327
 30
0.0
 70
0
  0
VERTEX
  5
160
  8
P_Aisle_Sidewalk
 10
128.5080936937304
 20
10934.039581077694
 30
0.0
 70
0
  0
VERTEX
  5
161
  8
P_Aisle_Sidewalk
 10
337.13060676985333
 20
11367.565018311423
 30
0.0
 70
0
  0
VERTEX
  5
162
  8
P_Aisle_Sidewalk
 10
575.3393645130222
 20
11819.21679666585
 30
0.0
 70
0
  0
VERTEX
  5
163
  8
P_Aisle_Sidewalk
 10
931.8933896548547
 20
12526.149669417868
 30
0.0
 70
0
  0
VERTEX
  5
164
  8
P_Aisle_Sidewalk
 10
1147.3427848630552
 20
12950.611304098205
 30
0.0
 70
0
  0
VERTEX
  5
165
  8
P_Aisle_Sidewalk
 10
1333.9642646683499
 20
13326.735539697549
 30
0.0
 70
0
  0
VERTEX
  5
166
  8
P_Aisle_Sidewalk
 10
1700.3791796980731
 20
14049.528180516134
 30
0.0
 70
0
  0
VERTEX
  5
167
  8
P_Aisle_Sidewalk
 10
1751.9654844224249
 20
14157.53163554781
 30
0.0
 70
0
  0
VERTEX
  5
168
  8
P_Aisle_Sidewalk
 10
1891.5519379712098
 20
14428.673153302007
 30
0.0
 70
0
  0
VERTEX
  5
169
  8
P_Aisle_Sidewalk
 10
1989.4143449186097
 20
14522.326586320676
 30
0.0
 70
0
  0
VERTEX
  5
16A
  8
P_Aisle_Sidewalk
 10
2092.5871990461565
 20
14575.950839970033
 30
0.0
 70
0
  0
VERTEX
  5
16B
  8
P_Aisle_Sidewalk
 10
2205.6222505191586
 20
14594.077540671758
 30
0.0
 70
0
  0
VERTEX
  5
16C
  8
P_Aisle_Sidewalk
 10
2311.071104876062
 20
14591.056737630493
 30
0.0
 70
0
  0
VERTEX
  5
16D
  8
P_Aisle_Sidewalk
 10
2446.106443296558
 20
14545.741029567549
 30
0.0
 70
0
  0
VERTEX
  5
16E
  8
P_Aisle_Sidewalk
 10
2556.8657453269757
 20
14519.306966611148
 30
0.0
 70
0
  0
VERTEX
  5
16F
  8
P_Aisle_Sidewalk
 10
2581.141767201639
 20
14510.243822321883
 30
0.0
 70
0
  0
VERTEX
  5
170
  8
P_Aisle_Sidewalk
 10
3126.5936196700786
 20
14347.107698561098
 30
0.0
 70
0
  0
VERTEX
  5
171
  8
P_Aisle_Sidewalk
 10
3786.598246036807
 20
14142.432612130566
 30
0.0
 70
0
  0
VERTEX
  5
172
  8
P_Aisle_Sidewalk
 10
5279.57560159354
 20
13637.165672116791
 30
0.0
 70
0
  0
VERTEX
  5
173
  8
P_Aisle_Sidewalk
 10
6156.549288099978
 20
13279.173923938672
 30
0.0
 70
0
  0
VERTEX
  5
174
  8
P_Aisle_Sidewalk
 10
6435.724347349151
 20
13179.480400275352
 30
0.0
 70
0
  0
VERTEX
  5
175
  8
P_Aisle_Sidewalk
 10
6625.38138267262
 20
13107.731236889878
 30
0.0
 70
0
  0
VERTEX
  5
176
  8
P_Aisle_Sidewalk
 10
7980.292237987472
 20
12583.585494853114
 30
0.0
 70
0
  0
VERTEX
  5
177
  8
P_Aisle_Sidewalk
 10
8127.466305884569
 20
12526.186345337319
 30
0.0
 70
0
  0
VERTEX
  5
178
  8
P_Aisle_Sidewalk
 10
8213.950062127242
 20
12490.689471047539
 30
0.0
 70
0
  0
VERTEX
  5
179
  8
P_Aisle_Sidewalk
 10
9043.132329039756
 20
12156.113039010212
 30
0.0
 70
0
  0
VERTEX
  5
17A
  8
P_Aisle_Sidewalk
 10
9279.066257594268
 20
12063.217274304083
 30
0.0
 70
0
  0
VERTEX
  5
17B
  8
P_Aisle_Sidewalk
 10
11422.957098461065
 20
11202.234108471064
 30
0.0
 70
0
  0
VERTEX
  5
17C
  8
P_Aisle_Sidewalk
 10
11739.306401324366
 20
11084.416000592304
 30
0.0
 70
0
  0
VERTEX
  5
17D
  8
P_Aisle_Sidewalk
 10
13405.641821681871
 20
10456.054084329613
 30
0.0
 70
0
  0
VERTEX
  5
17E
  8
P_Aisle_Sidewalk
 10
13521.718551731155
 20
10022.530019565258
 30
0.0
 70
0
  0
VERTEX
  5
17F
  8
P_Aisle_Sidewalk
 10
13875.2289588204
 20
10699.258612862986
 30
0.0
 70
0
  0
VERTEX
  5
180
  8
P_Aisle_Sidewalk
 10
13401.083696514776
 20
10877.495294314771
 30
0.0
 70
0
  0
VERTEX
  5
181
  8
P_Aisle_Sidewalk
 10
11739.300993898663
 20
11493.772657524969
 30
0.0
 70
0
  0
VERTEX
  5
182
  8
P_Aisle_Sidewalk
 10
8940.713977833504
 20
12526.194154930237
 30
0.0
 70
0
  0
VERTEX
  5
183
  8
P_Aisle_Sidewalk
 10
6507.033228345772
 20
13447.601371821762
 30
0.0
 70
0
  0
VERTEX
  5
184
  8
P_Aisle_Sidewalk
 10
6095.098382135213
 20
13600.917997313838
 30
0.0
 70
0
  0
VERTEX
  5
185
  8
P_Aisle_Sidewalk
 10
5446.471963016473
 20
13844.865522007518
 30
0.0
 70
0
  0
VERTEX
  5
186
  8
P_Aisle_Sidewalk
 10
5299.29832270179
 20
13896.222884021603
 30
0.0
 70
0
  0
VERTEX
  5
187
  8
P_Aisle_Sidewalk
 10
4876.743205713201
 20
14037.455642483437
 30
0.0
 70
0
  0
VERTEX
  5
188
  8
P_Aisle_Sidewalk
 10
2034.1721310033765
 20
14994.368976624963
 30
0.0
 70
0
  0
VERTEX
  5
189
  8
P_Aisle_Sidewalk
 10
1952.999314574252
 20
14994.368794426859
 30
0.0
 70
0
  0
VERTEX
  5
18A
  8
P_Aisle_Sidewalk
 10
1867.274821151576
 20
14961.136841228665
 30
0.0
 70
0
  0
VERTEX
  5
18B
  8
P_Aisle_Sidewalk
 10
1780.7916909676583
 20
14930.925963696189
 30
0.0
 70
0
  0
VERTEX
  5
18C
  8
P_Aisle_Sidewalk
 10
1680.6534317900982
 20
14838.027859447406
 30
0.0
 70
0
  0
VERTEX
  5
18D
  8
P_Aisle_Sidewalk
 10
1567.6187614537314
 20
14615.223684408209
 30
0.0
 70
0
  0
VERTEX
  5
18E
  8
P_Aisle_Sidewalk
 10
501.75213027757053
 20
12526.149322512105
 30
0.0
 70
0
  0
VERTEX
  5
18F
  8
P_Aisle_Sidewalk
 10
-2062.4175054700013
 20
7413.3398294372
 30
0.0
 70
0
  0
VERTEX
  5
190
  8
P_Aisle_Sidewalk
 10
-2780.845473733184
 20
5980.586150832191
 30
0.0
 70
0
  0
SEQEND
  5
134
  8
P_Aisle_Sidewalk
  0
POLYLINE
  5
191
  8
P_Aisle_Sidewalk
 66
1
 10
0.0
 20
0.0
 30
0.0
 70
1
  0
VERTEX
  5
193
  8
P_Aisle_Sidewalk
 10
11739.212569181433
 20
18187.709334099334
 30
0.0
 70
0
  0
VERTEX
  5
194
  8
P_Aisle_Sidewalk
 10
11683.074045193986
 20
18226.982361585353
 30
0.0
 70
0
  0
VERTEX
  5
195
  8
P_Aisle_Sidewalk
 10
10384.303892833406
 20
19066.82023490751
 30
0.0
 70
0
  0
VERTEX
  5
196
  8
P_Aisle_Sidewalk
 10
9090.089763353202
 20
19726.15131279242
 30
0.0
 70
0
  0
VERTEX
  5
197
  8
P_Aisle_Sidewalk
 10
9043.055143866834
 20
19741.256102181378
 30
0.0
 70
0
  0
VERTEX
  5
198
  8
P_Aisle_Sidewalk
 10
8964.916998874049
 20
19765.423741212766
 30
0.0
 70
0
  0
VERTEX
  5
199
  8
P_Aisle_Sidewalk
 10
8869.33092136916
 20
19756.359620857158
 30
0.0
 70
0
  0
VERTEX
  5
19A
  8
P_Aisle_Sidewalk
 10
8785.883246399371
 20
19698.958767615575
 30
0.0
 70
0
  0
VERTEX
  5
19B
  8
P_Aisle_Sidewalk
 10
8722.160137798528
 20
19596.242297799567
 30
0.0
 70
0
  0
VERTEX
  5
19C
  8
P_Aisle_Sidewalk
 10
9197.817535968
 20
19371.17851635852
 30
0.0
 70
0
  0
VERTEX
  5
19D
  8
P_Aisle_Sidewalk
 10
10297.823928509591
 20
18822.868912378206
 30
0.0
 70
0
  0
VERTEX
  5
19E
  8
P_Aisle_Sidewalk
 10
11525.28323061928
 20
18034.387771767928
 30
0.0
 70
0
  0
VERTEX
  5
19F
  8
P_Aisle_Sidewalk
 10
11739.216380346745
 20
17899.19814445688
 30
0.0
 70
0
  0
VERTEX
  5
1A0
  8
P_Aisle_Sidewalk
 10
12531.604124408454
 20
17396.202322040604
 30
0.0
 70
0
  0
VERTEX
  5
1A1
  8
P_Aisle_Sidewalk
 10
13810.654769358882
 20
16542.015658826334
 30
0.0
 70
0
  0
VERTEX
  5
1A2
  8
P_Aisle_Sidewalk
 10
14810.53180047987
 20
15837.368155203467
 30
0.0
 70
0
  0
VERTEX
  5
1A3
  8
P_Aisle_Sidewalk
 10
15053.294503869487
 20
15653.842394496993
 30
0.0
 70
0
  0
VERTEX
  5
1A4
  8
P_Aisle_Sidewalk
 10
15279.38026494359
 20
14732.420151253888
 30
0.0
 70
0
  0
VERTEX
  5
1A5
  8
P_Aisle_Sidewalk
 10
15534.297193453505
 20
13643.327908216326
 30
0.0
 70
0
  0
VERTEX
  5
1A6
  8
P_Aisle_Sidewalk
 10
15414.438264923638
 20
13417.500480693692
 30
0.0
 70
0
  0
VERTEX
  5
1A7
  8
P_Aisle_Sidewalk
 10
14910.725687854654
 20
12526.274268846864
 30
0.0
 70
0
  0
VERTEX
  5
1A8
  8
P_Aisle_Sidewalk
 10
14336.461258071251
 20
11542.148065057077
 30
0.0
 70
0
  0
VERTEX
  5
1A9
  8
P_Aisle_Sidewalk
 10
14000.387749126423
 20
11641.838390587753
 30
0.0
 70
0
  0
VERTEX
  5
1AA
  8
P_Aisle_Sidewalk
 10
11893.669103711733
 20
12433.330610610303
 30
0.0
 70
0
  0
VERTEX
  5
1AB
  8
P_Aisle_Sidewalk
 10
11739.287864419748
 20
12487.707968838904
 30
0.0
 70
0
  0
VERTEX
  5
1AC
  8
P_Aisle_Sidewalk
 10
11614.113973182448
 20
12526.225071817502
 30
0.0
 70
0
  0
VERTEX
  5
1AD
  8
P_Aisle_Sidewalk
 10
10882.794612540834
 20
12800.378617150567
 30
0.0
 70
0
  0
VERTEX
  5
1AE
  8
P_Aisle_Sidewalk
 10
10734.865790863389
 20
12526.214016152524
 30
0.0
 70
0
  0
VERTEX
  5
1AF
  8
P_Aisle_Sidewalk
 10
11739.292204332642
 20
12159.165643729004
 30
0.0
 70
0
  0
VERTEX
  5
1B0
  8
P_Aisle_Sidewalk
 10
13410.93573913559
 20
11548.175779543046
 30
0.0
 70
0
  0
VERTEX
  5
1B1
  8
P_Aisle_Sidewalk
 10
13708.319437068812
 20
11434.134484540886
 30
0.0
 70
0
  0
VERTEX
  5
1B2
  8
P_Aisle_Sidewalk
 10
14108.118511426095
 20
11283.84190660428
 30
0.0
 70
0
  0
VERTEX
  5
1B3
  8
P_Aisle_Sidewalk
 10
14255.292706014561
 20
11256.654513108995
 30
0.0
 70
0
  0
VERTEX
  5
1B4
  8
P_Aisle_Sidewalk
 10
14353.914299601436
 20
11256.656100633034
 30
0.0
 70
0
  0
VERTEX
  5
1B5
  8
P_Aisle_Sidewalk
 10
14466.949142060175
 20
11298.197816384862
 30
0.0
 70
0
  0
VERTEX
  5
1B6
  8
P_Aisle_Sidewalk
 10
14579.22434297445
 20
11400.916444041097
 30
0.0
 70
0
  0
VERTEX
  5
1B7
  8
P_Aisle_Sidewalk
 10
14714.256652780074
 20
11605.596949112716
 30
0.0
 70
0
  0
VERTEX
  5
1B8
  8
P_Aisle_Sidewalk
 10
15245.280000442026
 20
12526.279945029542
 30
0.0
 70
0
  0
VERTEX
  5
1B9
  8
P_Aisle_Sidewalk
 10
15877.955133233343
 20
13613.12323717419
 30
0.0
 70
0
  0
VERTEX
  5
1BA
  8
P_Aisle_Sidewalk
 10
16094.156681290033
 20
13986.22975053018
 30
0.0
 70
0
  0
VERTEX
  5
1BB
  8
P_Aisle_Sidewalk
 10
16320.219950808578
 20
14371.420629925367
 30
0.0
 70
0
  0
VERTEX
  5
1BC
  8
P_Aisle_Sidewalk
 10
16418.07778802092
 20
14630.479315489254
 30
0.0
 70
0
  0
VERTEX
  5
1BD
  8
P_Aisle_Sidewalk
 10
16408.970678771933
 20
14826.093478493025
 30
0.0
 70
0
  0
VERTEX
  5
1BE
  8
P_Aisle_Sidewalk
 10
16376.347831062896
 20
14934.096137815362
 30
0.0
 70
0
  0
VERTEX
  5
1BF
  8
P_Aisle_Sidewalk
 10
16189.722364107194
 20
15144.812330186483
 30
0.0
 70
0
  0
VERTEX
  5
1C0
  8
P_Aisle_Sidewalk
 10
16129.03154110246
 20
15193.14833484652
 30
0.0
 70
0
  0
VERTEX
  5
1C1
  8
P_Aisle_Sidewalk
 10
15254.325750680635
 20
15891.754866929114
 30
0.0
 70
0
  0
VERTEX
  5
1C2
  8
P_Aisle_Sidewalk
 10
13923.685900097476
 20
16779.170965424644
 30
0.0
 70
0
  0
VERTEX
  5
1C3
  8
P_Aisle_Sidewalk
 10
11739.212569181433
 20
18187.709334099334
 30
0.0
 70
0
  0
SEQEND
  5
192
  8
P_Aisle_Sidewalk
  0
POLYLINE
  5
1C4
  8
P_TrafficSign
 66
1
 10
0.0
 20
0.0
 30
0.0
 70
1
  0
VERTEX
  5
1C6
  8
P_TrafficSign
 10
6362.229999810255
 20
275.99393031987415
 30
0.0
 70
0
  0
VERTEX
  5
1C7
  8
P_TrafficSign
 10
6874.311738614195
 20
49.413756807663034
 30
0.0
 70
0
  0
VERTEX
  5
1C8
  8
P_TrafficSign
 10
6966.105242630141
 20
253.34006248273337
 30
0.0
 70
0
  0
VERTEX
  5
1C9
  8
P_TrafficSign
 10
6454.023597922623
 20
479.9201316187264
 30
0.0
 70
0
  0
VERTEX
  5
1CA
  8
P_TrafficSign
 10
6362.229999810255
 20
275.99393031987415
 30
0.0
 70
0
  0
SEQEND
  5
1C5
  8
P_TrafficSign
  0
POLYLINE
  5
1CB
  8
P_TrafficSign
 66
1
 10
0.0
 20
0.0
 30
0.0
 70
1
  0
VERTEX
  5
1CD
  8
P_TrafficSign
 10
6457.0593690711075
 20
311.4927670100138
 30
0.0
 70
0
  0
VERTEX
  5
1CE
  8
P_TrafficSign
 10
6490.438844956124
 20
387.02098998080265
 30
0.0
 70
0
  0
VERTEX
  5
1CF
  8
P_TrafficSign
 10
6719.547960509077
 20
285.8151983815407
 30
0.0
 70
0
  0
VERTEX
  5
1D0
  8
P_TrafficSign
 10
6736.23768837424
 20
323.5793162399743
 30
0.0
 70
0
  0
VERTEX
  5
1D1
  8
P_TrafficSign
 10
6854.586163383101
 20
180.0770437789
 30
0.0
 70
0
  0
VERTEX
  5
1D2
  8
P_TrafficSign
 10
6667.961499595041
 20
171.76754499827416
 30
0.0
 70
0
  0
VERTEX
  5
1D3
  8
P_TrafficSign
 10
6685.409868884755
 20
209.5316722038317
 30
0.0
 70
0
  0
VERTEX
  5
1D4
  8
P_TrafficSign
 10
6457.0593690711075
 20
311.4927670100138
 30
0.0
 70
0
  0
SEQEND
  5
1CC
  8
P_TrafficSign
  0
POLYLINE
  5
1D5
  8
P_TrafficSign
 66
1
 10
0.0
 20
0.0
 30
0.0
 70
1
  0
VERTEX
  5
1D7
  8
P_TrafficSign
 10
4508.124338362068
 20
-356.18687511057425
 30
0.0
 70
0
  0
VERTEX
  5
1D8
  8
P_TrafficSign
 10
4771.3689223222045
 20
137.01246038169236
 30
0.0
 70
0
  0
VERTEX
  5
1D9
  8
P_TrafficSign
 10
4573.364089861488
 20
241.9953299051686
 30
0.0
 70
0
  0
VERTEX
  5
1DA
  8
P_TrafficSign
 10
4310.119426886631
 20
-251.20388881885947
 30
0.0
 70
0
  0
VERTEX
  5
1DB
  8
P_TrafficSign
 10
4508.124338362068
 20
-356.18687511057425
 30
0.0
 70
0
  0
SEQEND
  5
1D6
  8
P_TrafficSign
  0
POLYLINE
  5
1DC
  8
P_TrafficSign
 66
1
 10
0.0
 20
0.0
 30
0.0
 70
1
  0
VERTEX
  5
1DE
  8
P_TrafficSign
 10
4480.054261261083
 20
-259.5111318268913
 30
0.0
 70
0
  0
VERTEX
  5
1DF
  8
P_TrafficSign
 10
4406.466235485944
 20
-220.99220467206763
 30
0.0
 70
0
  0
VERTEX
  5
1E0
  8
P_TrafficSign
 10
4523.295282653109
 20
-1.2050832736140715
 30
0.0
 70
0
  0
VERTEX
  5
1E1
  8
P_TrafficSign
 10
4486.88059544553
 20
18.43201409815415
 30
0.0
 70
0
  0
VERTEX
  5
1E2
  8
P_TrafficSign
 10
4638.60747880336
 20
126.4378377052152
 30
0.0
 70
0
  0
VERTEX
  5
1E3
  8
P_TrafficSign
 10
4634.056624865016
 20
-59.36108188318033
 30
0.0
 70
0
  0
VERTEX
  5
1E4
  8
P_TrafficSign
 10
4596.883295523719
 20
-39.72399159256666
 30
0.0
 70
0
  0
VERTEX
  5
1E5
  8
P_TrafficSign
 10
4480.054261261083
 20
-259.5111318268913
 30
0.0
 70
0
  0
SEQEND
  5
1DD
  8
P_TrafficSign
  0
POLYLINE
  5
1E6
  8
P_TrafficSign
 66
1
 10
0.0
 20
0.0
 30
0.0
 70
1
  0
VERTEX
  5
1E8
  8
P_TrafficSign
 10
285.54695386302546
 20
1967.0412168101627
 30
0.0
 70
0
  0
VERTEX
  5
1E9
  8
P_TrafficSign
 10
48.85268295735864
 20
1461.7597562516764
 30
0.0
 70
0
  0
VERTEX
  5
1EA
  8
P_TrafficSign
 10
252.16715850213566
 20
1367.3499278288082
 30
0.0
 70
0
  0
VERTEX
  5
1EB
  8
P_TrafficSign
 10
488.8613391886598
 20
1872.631495950032
 30
0.0
 70
0
  0
VERTEX
  5
1EC
  8
P_TrafficSign
 10
285.54695386302546
 20
1967.0412168101627
 30
0.0
 70
0
  0
SEQEND
  5
1E7
  8
P_TrafficSign
  0
POLYLINE
  5
1ED
  8
P_TrafficSign
 66
1
 10
0.0
 20
0.0
 30
0.0
 70
1
  0
VERTEX
  5
1EF
  8
P_TrafficSign
 10
318.92695302998504
 20
1872.6314187654477
 30
0.0
 70
0
  0
VERTEX
  5
1F0
  8
P_TrafficSign
 10
394.7905337211183
 20
1837.8886365219146
 30
0.0
 70
0
  0
VERTEX
  5
1F1
  8
P_TrafficSign
 10
289.34024738543553
 20
1612.0602828550766
 30
0.0
 70
0
  0
VERTEX
  5
1F2
  8
P_TrafficSign
 10
326.51341162446477
 20
1594.6888847229668
 30
0.0
 70
0
  0
VERTEX
  5
1F3
  8
P_TrafficSign
 10
180.85534420931054
 20
1479.1311868862854
 30
0.0
 70
0
  0
VERTEX
  5
1F4
  8
P_TrafficSign
 10
175.5448554612755
 20
1664.9297629678736
 30
0.0
 70
0
  0
VERTEX
  5
1F5
  8
P_TrafficSign
 10
213.47665107886846
 20
1646.8030826598729
 30
0.0
 70
0
  0
VERTEX
  5
1F6
  8
P_TrafficSign
 10
318.92695302998504
 20
1872.6314187654477
 30
0.0
 70
0
  0
SEQEND
  5
1EE
  8
P_TrafficSign
  0
POLYLINE
  5
1F7
  8
P_TrafficSign
 66
1
 10
0.0
 20
0.0
 30
0.0
 70
1
  0
VERTEX
  5
1F9
  8
P_TrafficSign
 10
1752.7473030404817
 20
2397.5515052337237
 30
0.0
 70
0
  0
VERTEX
  5
1FA
  8
P_TrafficSign
 10
2260.274854744617
 20
2161.905860918919
 30
0.0
 70
0
  0
VERTEX
  5
1FB
  8
P_TrafficSign
 10
2355.1037440552377
 20
2364.3206613692023
 30
0.0
 70
0
  0
VERTEX
  5
1FC
  8
P_TrafficSign
 10
1847.5762828004015
 20
2599.9661980504575
 30
0.0
 70
0
  0
VERTEX
  5
1FD
  8
P_TrafficSign
 10
1752.7473030404817
 20
2397.5515052337237
 30
0.0
 70
0
  0
SEQEND
  5
1F8
  8
P_TrafficSign
  0
POLYLINE
  5
1FE
  8
P_TrafficSign
 66
1
 10
0.0
 20
0.0
 30
0.0
 70
1
  0
VERTEX
  5
200
  8
P_TrafficSign
 10
1847.576634515484
 20
2430.783931877911
 30
0.0
 70
0
  0
VERTEX
  5
201
  8
P_TrafficSign
 10
1882.473692792559
 20
2506.311806314273
 30
0.0
 70
0
  0
VERTEX
  5
202
  8
P_TrafficSign
 10
2109.3058405588145
 20
2401.328670326951
 30
0.0
 70
0
  0
VERTEX
  5
203
  8
P_TrafficSign
 10
2126.754361587906
 20
2438.3373365574644
 30
0.0
 70
0
  0
VERTEX
  5
204
  8
P_TrafficSign
 10
2242.82590879761
 20
2293.324226482854
 30
0.0
 70
0
  0
VERTEX
  5
205
  8
P_TrafficSign
 10
2056.201638449892
 20
2288.036827940197
 30
0.0
 70
0
  0
VERTEX
  5
206
  8
P_TrafficSign
 10
2074.4087976668634
 20
2325.8007776920217
 30
0.0
 70
0
  0
VERTEX
  5
207
  8
P_TrafficSign
 10
1847.576634515484
 20
2430.783931877911
 30
0.0
 70
0
  0
SEQEND
  5
1FF
  8
P_TrafficSign
  0
POLYLINE
  5
208
  8
P_RailwayArea
 66
1
 10
0.0
 20
0.0
 30
0.0
 70
1
  0
VERTEX
  5
20A
  8
P_RailwayArea
 10
3752.4945756856787
 20
5980.589722354112
 30
0.0
 70
0
  0
VERTEX
  5
20B
  8
P_RailwayArea
 10
4636.319932271803
 20
2356.7768534243546
 30
0.0
 70
0
  0
VERTEX
  5
20C
  8
P_RailwayArea
 10
5448.855000063461
 20
-3633.3492200817554
 30
0.0
 70
0
  0
VERTEX
  5
20D
  8
P_RailwayArea
 10
5648.398413830839
 20
-6937.71785956595
 30
0.0
 70
0
  0
VERTEX
  5
20E
  8
P_RailwayArea
 10
5545.238380166427
 20
-9412.038651948209
 30
0.0
 70
0
  0
VERTEX
  5
20F
  8
P_RailwayArea
 10
5751.622680844789
 20
-14477.7684044515
 30
0.0
 70
0
  0
VERTEX
  5
210
  8
P_RailwayArea
 10
5751.641173862395
 20
-17335.42132768404
 30
0.0
 70
0
  0
VERTEX
  5
211
  8
P_RailwayArea
 10
6733.336926149905
 20
-17335.414432551417
 30
0.0
 70
0
  0
VERTEX
  5
212
  8
P_RailwayArea
 10
6733.314796071916
 20
-14414.316959496318
 30
0.0
 70
0
  0
VERTEX
  5
213
  8
P_RailwayArea
 10
6529.201316811011
 20
-9412.031968046427
 30
0.0
 70
0
  0
VERTEX
  5
214
  8
P_RailwayArea
 10
6630.082794209269
 20
-6952.816797230412
 30
0.0
 70
0
  0
VERTEX
  5
215
  8
P_RailwayArea
 10
6423.706719010822
 20
-3476.24382652904
 30
0.0
 70
0
  0
VERTEX
  5
216
  8
P_RailwayArea
 10
5589.163941416372
 20
2651.3407485758526
 30
0.0
 70
0
  0
VERTEX
  5
217
  8
P_RailwayArea
 10
4778.923870793845
 20
5980.594649138203
 30
0.0
 70
0
  0
VERTEX
  5
218
  8
P_RailwayArea
 10
4430.704572344149
 20
7413.348481121019
 30
0.0
 70
0
  0
VERTEX
  5
219
  8
P_RailwayArea
 10
3838.2032796069857
 20
9854.009846583342
 30
0.0
 70
0
  0
VERTEX
  5
21A
  8
P_RailwayArea
 10
3084.875565585845
 20
12526.154535020782
 30
0.0
 70
0
  0
VERTEX
  5
21B
  8
P_RailwayArea
 10
2050.8675648839253
 20
12526.151547198431
 30
0.0
 70
0
  0
VERTEX
  5
21C
  8
P_RailwayArea
 10
2102.4546337373645
 20
12330.536834909504
 30
0.0
 70
0
  0
VERTEX
  5
21D
  8
P_RailwayArea
 10
2890.67692666313
 20
9525.462968715936
 30
0.0
 70
0
  0
VERTEX
  5
21E
  8
P_RailwayArea
 10
3404.2769320188995
 20
7413.343956617318
 30
0.0
 70
0
  0
VERTEX
  5
21F
  8
P_RailwayArea
 10
3752.4945756856787
 20
5980.589722354112
 30
0.0
 70
0
  0
SEQEND
  5
209
  8
P_RailwayArea
  0
POLYLINE
  5
220
  8
P_Building_Facility
 66
1
 10
0.0
 20
0.0
 30
0.0
 70
1
  0
VERTEX
  5
222
  8
P_Building_Facility
 10
12512.070710900301
 20
3846.2600293636674
 30
0.0
 70
0
  0
VERTEX
  5
223
  8
P_Building_Facility
 10
12122.141875634263
 20
3184.6318570198455
 30
0.0
 70
0
  0
VERTEX
  5
224
  8
P_Building_Facility
 10
13020.372975633589
 20
2651.4185519825614
 30
0.0
 70
0
  0
VERTEX
  5
225
  8
P_Building_Facility
 10
13408.784096124708
 20
3313.802766239347
 30
0.0
 70
0
  0
VERTEX
  5
226
  8
P_Building_Facility
 10
12512.070710900301
 20
3846.2600293636674
 30
0.0
 70
0
  0
SEQEND
  5
221
  8
P_Building_Facility
  0
POLYLINE
  5
227
  8
P_Building_Facility
 66
1
 10
0.0
 20
0.0
 30
0.0
 70
1
  0
VERTEX
  5
229
  8
P_Building_Facility
 10
-1305.3099403654055
 20
3262.3437126144863
 30
0.0
 70
0
  0
VERTEX
  5
22A
  8
P_Building_Facility
 10
-2267.2637282179912
 20
1191.3727733991288
 30
0.0
 70
0
  0
VERTEX
  5
22B
  8
P_Building_Facility
 10
-1587.5262255452096
 20
875.6645844628076
 30
0.0
 70
0
  0
VERTEX
  5
22C
  8
P_Building_Facility
 10
-1511.6623092559794
 20
1032.007264946857
 30
0.0
 70
0
  0
VERTEX
  5
22D
  8
P_Building_Facility
 10
-666.5416869556215
 20
637.750387698741
 30
0.0
 70
0
  0
VERTEX
  5
22E
  8
P_Building_Facility
 10
128.50933572640182
 20
2344.680319129172
 30
0.0
 70
0
  0
VERTEX
  5
22F
  8
P_Building_Facility
 10
-1.217291691793894
 20
2654.3442849298613
 30
0.0
 70
0
  0
VERTEX
  5
230
  8
P_Building_Facility
 10
-1305.3099403654055
 20
3262.3437126144863
 30
0.0
 70
0
  0
SEQEND
  5
228
  8
P_Building_Facility
  0
POLYLINE
  5
231
  8
P_Building_Facility
 66
1
 10
0.0
 20
0.0
 30
0.0
 70
1
  0
VERTEX
  5
233
  8
P_Building_Facility
 10
10573.422353656639
 20
421.0477761522739
 30
0.0
 70
0
  0
VERTEX
  5
234
  8
P_Building_Facility
 10
10325.352880882863
 20
8.662027191258003
 30
0.0
 70
0
  0
VERTEX
  5
235
  8
P_Building_Facility
 10
11403.384662884799
 20
-634.823658503808
 30
0.0
 70
0
  0
VERTEX
  5
236
  8
P_Building_Facility
 10
11650.695147676479
 20
-220.17148165233004
 30
0.0
 70
0
  0
VERTEX
  5
237
  8
P_Building_Facility
 10
10573.422353656639
 20
421.0477761522739
 30
0.0
 70
0
  0
SEQEND
  5
232
  8
P_Building_Facility
  0
POLYLINE
  5
238
  8
P_Building_Facility
 66
1
 10
0.0
 20
0.0
 30
0.0
 70
1
  0
VERTEX
  5
23A
  8
P_Building_Facility
 10
9065.954133289819
 20
5980.628042021968
 30
0.0
 70
0
  0
VERTEX
  5
23B
  8
P_Building_Facility
 10
9262.441308114476
 20
5841.659447109803
 30
0.0
 70
0
  0
VERTEX
  5
23C
  8
P_Building_Facility
 10
10319.979544831749
 20
5423.248554900849
 30
0.0
 70
0
  0
VERTEX
  5
23D
  8
P_Building_Facility
 10
10577.90800213933
 20
5980.644751988856
 30
0.0
 70
0
  0
VERTEX
  5
23E
  8
P_Building_Facility
 10
11238.658483674151
 20
7413.408498721029
 30
0.0
 70
0
  0
VERTEX
  5
23F
  8
P_Building_Facility
 10
11739.34055185643
 20
8499.120472616332
 30
0.0
 70
0
  0
VERTEX
  5
240
  8
P_Building_Facility
 10
12583.290554951765
 20
10326.135389327676
 30
0.0
 70
0
  0
VERTEX
  5
241
  8
P_Building_Facility
 10
11739.311609211803
 20
10690.164578948901
 30
0.0
 70
0
  0
VERTEX
  5
242
  8
P_Building_Facility
 10
10160.598731590104
 20
11367.623038176112
 30
0.0
 70
0
  0
VERTEX
  5
243
  8
P_Building_Facility
 10
10123.42693677512
 20
11283.787582606588
 30
0.0
 70
0
  0
VERTEX
  5
244
  8
P_Building_Facility
 10
9667.502483851347
 20
10295.888030890745
 30
0.0
 70
0
  0
VERTEX
  5
245
  8
P_Building_Facility
 10
9539.296916507245
 20
10049.66812850811
 30
0.0
 70
0
  0
VERTEX
  5
246
  8
P_Building_Facility
 10
9473.297606548156
 20
9919.760693108403
 30
0.0
 70
0
  0
VERTEX
  5
247
  8
P_Building_Facility
 10
8726.822635389979
 20
8315.55444272934
 30
0.0
 70
0
  0
VERTEX
  5
248
  8
P_Building_Facility
 10
8591.78943243717
 20
8008.912200095142
 30
0.0
 70
0
  0
VERTEX
  5
249
  8
P_Building_Facility
 10
8554.617763306334
 20
7882.0259101813335
 30
0.0
 70
0
  0
VERTEX
  5
24A
  8
P_Building_Facility
 10
8500.756867613118
 20
7686.409547346092
 30
0.0
 70
0
  0
VERTEX
  5
24B
  8
P_Building_Facility
 10
8481.033990474787
 20
7527.046611052399
 30
0.0
 70
0
  0
VERTEX
  5
24C
  8
P_Building_Facility
 10
8478.000551231578
 20
7413.377875064374
 30
0.0
 70
0
  0
VERTEX
  5
24D
  8
P_Building_Facility
 10
8476.483779436801
 20
7362.019237309488
 30
0.0
 70
0
  0
VERTEX
  5
24E
  8
P_Building_Facility
 10
8486.348426938825
 20
7105.981445638081
 30
0.0
 70
0
  0
VERTEX
  5
24F
  8
P_Building_Facility
 10
8537.938757734482
 20
6751.003038805432
 30
0.0
 70
0
  0
VERTEX
  5
250
  8
P_Building_Facility
 10
8577.38867424556
 20
6639.222799080151
 30
0.0
 70
0
  0
VERTEX
  5
251
  8
P_Building_Facility
 10
8647.942815388436
 20
6494.966041568755
 30
0.0
 70
0
  0
VERTEX
  5
252
  8
P_Building_Facility
 10
8754.15300274124
 20
6317.477527715259
 30
0.0
 70
0
  0
VERTEX
  5
253
  8
P_Building_Facility
 10
9024.229058399285
 20
6010.838619030246
 30
0.0
 70
0
  0
VERTEX
  5
254
  8
P_Building_Facility
 10
9065.954133289819
 20
5980.628042021968
 30
0.0
 70
0
  0
SEQEND
  5
239
  8
P_Building_Facility
  0
POLYLINE
  5
255
  8
P_Building_Residential
 66
1
 10
0.0
 20
0.0
 30
0.0
 70
1
  0
VERTEX
  5
257
  8
P_Building_Residential
 10
6185.470734302263
 20
-177.93062857038652
 30
0.0
 70
0
  0
VERTEX
  5
258
  8
P_Building_Residential
 10
5078.615904323174
 20
322.0577383560833
 30
0.0
 70
0
  0
VERTEX
  5
259
  8
P_Building_Residential
 10
4653.784133277536
 20
-620.5343008834697
 30
0.0
 70
0
  0
VERTEX
  5
25A
  8
P_Building_Residential
 10
4552.885060651346
 20
-572.1968654761544
 30
0.0
 70
0
  0
VERTEX
  5
25B
  8
P_Building_Residential
 10
4115.914209493272
 20
-1541.2244981928525
 30
0.0
 70
0
  0
VERTEX
  5
25C
  8
P_Building_Residential
 10
4219.08928424577
 20
-1589.5620248054383
 30
0.0
 70
0
  0
VERTEX
  5
25D
  8
P_Building_Residential
 10
4189.502674019937
 20
-1652.2505257046935
 30
0.0
 70
0
  0
VERTEX
  5
25E
  8
P_Building_Residential
 10
5009.593158722274
 20
-2023.0895671956048
 30
0.0
 70
0
  0
VERTEX
  5
25F
  8
P_Building_Residential
 10
5124.904789772778
 20
-1764.0272906366229
 30
0.0
 70
0
  0
VERTEX
  5
260
  8
P_Building_Residential
 10
5412.429683896945
 20
-1896.1998723794427
 30
0.0
 70
0
  0
VERTEX
  5
261
  8
P_Building_Residential
 10
5809.950689995933
 20
-1014.784062562623
 30
0.0
 70
0
  0
VERTEX
  5
262
  8
P_Building_Residential
 10
6185.470734302263
 20
-177.93062857038652
 30
0.0
 70
0
  0
SEQEND
  5
256
  8
P_Building_Residential
  0
POLYLINE
  5
263
  8
P_Building_Residential
 66
1
 10
0.0
 20
0.0
 30
0.0
 70
1
  0
VERTEX
  5
265
  8
P_Building_Residential
 10
1130.666908245944
 20
2025.1983284356015
 30
0.0
 70
0
  0
VERTEX
  5
266
  8
P_Building_Residential
 10
485.06883318517123
 20
640.7713885874657
 30
0.0
 70
0
  0
VERTEX
  5
267
  8
P_Building_Residential
 10
3698.6601526745985
 20
-857.6969338567118
 30
0.0
 70
0
  0
VERTEX
  5
268
  8
P_Building_Residential
 10
4344.254310284129
 20
526.7346539196485
 30
0.0
 70
0
  0
VERTEX
  5
269
  8
P_Building_Residential
 10
1130.666908245944
 20
2025.1983284356015
 30
0.0
 70
0
  0
SEQEND
  5
264
  8
P_Building_Residential
  0
POLYLINE
  5
26A
  8
P_Building_Residential
 66
1
 10
0.0
 20
0.0
 30
0.0
 70
1
  0
VERTEX
  5
26C
  8
P_Building_Residential
 10
11739.420221097429
 20
2467.868169676842
 30
0.0
 70
0
  0
VERTEX
  5
26D
  8
P_Building_Residential
 10
10593.146300690833
 20
472.40703202114184
 30
0.0
 70
0
  0
VERTEX
  5
26E
  8
P_Building_Residential
 10
11739.455249261067
 20
-183.91686108649935
 30
0.0
 70
0
  0
VERTEX
  5
26F
  8
P_Building_Residential
 10
11814.940273934315
 20
-229.23267678299362
 30
0.0
 70
0
  0
VERTEX
  5
270
  8
P_Building_Residential
 10
11739.457553873292
 20
-358.3866153783079
 30
0.0
 70
0
  0
VERTEX
  5
271
  8
P_Building_Residential
 10
11697.733472548623
 20
-433.1599277213851
 30
0.0
 70
0
  0
VERTEX
  5
272
  8
P_Building_Residential
 10
11739.458860817691
 20
-457.32835254849044
 30
0.0
 70
0
  0
VERTEX
  5
273
  8
P_Building_Residential
 10
12676.763317478853
 20
-993.5647770851295
 30
0.0
 70
0
  0
VERTEX
  5
274
  8
P_Building_Residential
 10
14525.511879916081
 20
2217.9122815222913
 30
0.0
 70
0
  0
VERTEX
  5
275
  8
P_Building_Residential
 10
13985.358571412007
 20
2531.3440259917916
 30
0.0
 70
0
  0
VERTEX
  5
276
  8
P_Building_Residential
 10
14179.56368423324
 20
2874.2432320626167
 30
0.0
 70
0
  0
VERTEX
  5
277
  8
P_Building_Residential
 10
13524.097494063735
 20
3250.3612176225197
 30
0.0
 70
0
  0
VERTEX
  5
278
  8
P_Building_Residential
 10
13118.997074118744
 20
2546.436373792204
 30
0.0
 70
0
  0
VERTEX
  5
279
  8
P_Building_Residential
 10
12114.556353764769
 20
3124.2095586179034
 30
0.0
 70
0
  0
VERTEX
  5
27A
  8
P_Building_Residential
 10
11739.420221097429
 20
2467.868169676842
 30
0.0
 70
0
  0
SEQEND
  5
26B
  8
P_Building_Residential
  0
POLYLINE
  5
27B
  8
P_Building_Residential
 66
1
 10
0.0
 20
0.0
 30
0.0
 70
1
  0
VERTEX
  5
27D
  8
P_Building_Residential
 10
10325.352880882863
 20
8.662027191258003
 30
0.0
 70
0
  0
VERTEX
  5
27E
  8
P_Building_Residential
 10
10025.696835180748
 20
-493.60280155086195
 30
0.0
 70
0
  0
VERTEX
  5
27F
  8
P_Building_Residential
 10
11101.453066414757
 20
-1134.8233968439376
 30
0.0
 70
0
  0
VERTEX
  5
280
  8
P_Building_Residential
 10
11403.384662884799
 20
-634.823658503808
 30
0.0
 70
0
  0
VERTEX
  5
281
  8
P_Building_Residential
 10
10325.352880882863
 20
8.662027191258003
 30
0.0
 70
0
  0
SEQEND
  5
27C
  8
P_Building_Residential
  0
POLYLINE
  5
282
  8
P_Building_Residential
 66
1
 10
0.0
 20
0.0
 30
0.0
 70
1
  0
VERTEX
  5
284
  8
P_Building_Residential
 10
2809.514817278631
 20
5980.5862410461
 30
0.0
 70
0
  0
VERTEX
  5
285
  8
P_Building_Residential
 10
4876.79280169428
 20
4999.492346253174
 30
0.0
 70
0
  0
VERTEX
  5
286
  8
P_Building_Residential
 10
5311.4836377351685
 20
5980.597672437139
 30
0.0
 70
0
  0
VERTEX
  5
287
  8
P_Building_Residential
 10
5645.276965599712
 20
6738.895565542698
 30
0.0
 70
0
  0
VERTEX
  5
288
  8
P_Building_Residential
 10
5943.414634771722
 20
7413.35731018776
 30
0.0
 70
0
  0
VERTEX
  5
289
  8
P_Building_Residential
 10
6698.998153958162
 20
9122.168139872914
 30
0.0
 70
0
  0
VERTEX
  5
28A
  8
P_Building_Residential
 10
6713.411634409282
 20
9185.61112886739
 30
0.0
 70
0
  0
VERTEX
  5
28B
  8
P_Building_Residential
 10
6723.2733367868395
 20
9249.054079127949
 30
0.0
 70
0
  0
VERTEX
  5
28C
  8
P_Building_Residential
 10
6728.583267784019
 20
9311.741718321508
 30
0.0
 70
0
  0
VERTEX
  5
28D
  8
P_Building_Residential
 10
6735.410404818898
 20
9381.226814177764
 30
0.0
 70
0
  0
VERTEX
  5
28E
  8
P_Building_Residential
 10
6735.4099010934815
 20
9447.690764548122
 30
0.0
 70
0
  0
VERTEX
  5
28F
  8
P_Building_Residential
 10
6733.1335385350985
 20
9510.37833236364
 30
0.0
 70
0
  0
VERTEX
  5
290
  8
P_Building_Residential
 10
6725.546744265156
 20
9576.842215887898
 30
0.0
 70
0
  0
VERTEX
  5
291
  8
P_Building_Residential
 10
6715.684086846187
 20
9640.284989190406
 30
0.0
 70
0
  0
VERTEX
  5
292
  8
P_Building_Residential
 10
6701.2696398327635
 20
9705.993539554462
 30
0.0
 70
0
  0
VERTEX
  5
293
  8
P_Building_Residential
 10
6683.820696509383
 20
9769.436247356289
 30
0.0
 70
0
  0
VERTEX
  5
294
  8
P_Building_Residential
 10
6661.820005068078
 20
9829.857829287013
 30
0.0
 70
0
  0
VERTEX
  5
295
  8
P_Building_Residential
 10
6637.543436008768
 20
9889.524119128231
 30
0.0
 70
0
  0
VERTEX
  5
296
  8
P_Building_Residential
 10
6610.232349484831
 20
9949.94565453577
 30
0.0
 70
0
  0
VERTEX
  5
297
  8
P_Building_Residential
 10
6578.369494327985
 20
10010.367152908872
 30
0.0
 70
0
  0
VERTEX
  5
298
  8
P_Building_Residential
 10
6544.23080197865
 20
10064.746458879843
 30
0.0
 70
0
  0
VERTEX
  5
299
  8
P_Building_Residential
 10
6510.092141700791
 20
10115.349404955672
 30
0.0
 70
0
  0
VERTEX
  5
29A
  8
P_Building_Residential
 10
6468.367171908519
 20
10169.728652082247
 30
0.0
 70
0
  0
VERTEX
  5
29B
  8
P_Building_Residential
 10
6426.642250916511
 20
10218.065725713377
 30
0.0
 70
0
  0
VERTEX
  5
29C
  8
P_Building_Residential
 10
6333.330322711603
 20
10304.9212724557
 30
0.0
 70
0
  0
VERTEX
  5
29D
  8
P_Building_Residential
 10
6232.432208438618
 20
10380.447697308913
 30
0.0
 70
0
  0
VERTEX
  5
29E
  8
P_Building_Residential
 10
3474.8127353489926
 20
11728.590982795384
 30
0.0
 70
0
  0
VERTEX
  5
29F
  8
P_Building_Residential
 10
3445.9848419072036
 20
11743.696274450638
 30
0.0
 70
0
  0
VERTEX
  5
2A0
  8
P_Building_Residential
 10
2902.8068910545685
 20
12005.773056001217
 30
0.0
 70
0
  0
VERTEX
  5
2A1
  8
P_Building_Residential
 10
2124.45467885082
 20
12384.91630424271
 30
0.0
 70
0
  0
VERTEX
  5
2A2
  8
P_Building_Residential
 10
1665.48744412755
 20
11367.56651498425
 30
0.0
 70
0
  0
VERTEX
  5
2A3
  8
P_Building_Residential
 10
1430.3137366843314
 20
10850.205650647236
 30
0.0
 70
0
  0
VERTEX
  5
2A4
  8
P_Building_Residential
 10
1223.9675580143285
 20
10389.489942137012
 30
0.0
 70
0
  0
VERTEX
  5
2A5
  8
P_Building_Residential
 10
1000.1727441651283
 20
9892.520981494074
 30
0.0
 70
0
  0
VERTEX
  5
2A6
  8
P_Building_Residential
 10
322.7177619321379
 20
8397.081143940055
 30
0.0
 70
0
  0
VERTEX
  5
2A7
  8
P_Building_Residential
 10
302.99340218249637
 20
8330.617108737466
 30
0.0
 70
0
  0
VERTEX
  5
2A8
  8
P_Building_Residential
 10
285.5449305881946
 20
8264.153069781867
 30
0.0
 70
0
  0
VERTEX
  5
2A9
  8
P_Building_Residential
 10
276.44139032694477
 20
8192.402116422145
 30
0.0
 70
0
  0
VERTEX
  5
2AA
  8
P_Building_Residential
 10
266.5792171329034
 20
8125.9380697480865
 30
0.0
 70
0
  0
VERTEX
  5
2AB
  8
P_Building_Residential
 10
263.5447152804545
 20
8059.474020454
 30
0.0
 70
0
  0
VERTEX
  5
2AC
  8
P_Building_Residential
 10
263.5447562679347
 20
7921.258994998875
 30
0.0
 70
0
  0
VERTEX
  5
2AD
  8
P_Building_Residential
 10
268.85519107318146
 20
7851.773839165237
 30
0.0
 70
0
  0
VERTEX
  5
2AE
  8
P_Building_Residential
 10
278.7174095391851
 20
7783.043952903037
 30
0.0
 70
0
  0
VERTEX
  5
2AF
  8
P_Building_Residential
 10
293.1314128894935
 20
7716.579883781717
 30
0.0
 70
0
  0
VERTEX
  5
2B0
  8
P_Building_Residential
 10
330.30436499289937
 20
7584.407008170984
 30
0.0
 70
0
  0
VERTEX
  5
2B1
  8
P_Building_Residential
 10
354.5805774740632
 20
7514.9218341387805
 30
0.0
 70
0
  0
VERTEX
  5
2B2
  8
P_Building_Residential
 10
381.8913148105423
 20
7451.478847127029
 30
0.0
 70
0
  0
VERTEX
  5
2B3
  8
P_Building_Residential
 10
403.89162803748644
 20
7413.337528132782
 30
0.0
 70
0
  0
VERTEX
  5
2B4
  8
P_Building_Residential
 10
447.8922610682297
 20
7334.789065568194
 30
0.0
 70
0
  0
VERTEX
  5
2B5
  8
P_Building_Residential
 10
485.0652108860511
 20
7277.38826578933
 30
0.0
 70
0
  0
VERTEX
  5
2B6
  8
P_Building_Residential
 10
523.7554275036644
 20
7220.742738485175
 30
0.0
 70
0
  0
VERTEX
  5
2B7
  8
P_Building_Residential
 10
614.7912312630713
 20
7115.004428946872
 30
0.0
 70
0
  0
VERTEX
  5
2B8
  8
P_Building_Residential
 10
664.1022937400276
 20
7066.666920886911
 30
0.0
 70
0
  0
VERTEX
  5
2B9
  8
P_Building_Residential
 10
715.6892528359963
 20
7022.105785680606
 30
0.0
 70
0
  0
VERTEX
  5
2BA
  8
P_Building_Residential
 10
769.5521114688845
 20
6976.789378707707
 30
0.0
 70
0
  0
VERTEX
  5
2BB
  8
P_Building_Residential
 10
823.4149697662881
 20
6937.515166969399
 30
0.0
 70
0
  0
VERTEX
  5
2BC
  8
P_Building_Residential
 10
882.5882522610721
 20
6898.240961745755
 30
0.0
 70
0
  0
VERTEX
  5
2BD
  8
P_Building_Residential
 10
941.7615338132852
 20
6865.008953385367
 30
0.0
 70
0
  0
VERTEX
  5
2BE
  8
P_Building_Residential
 10
1005.4866046053178
 20
6835.5533246765435
 30
0.0
 70
0
  0
VERTEX
  5
2BF
  8
P_Building_Residential
 10
2809.514817278631
 20
5980.5862410461
 30
0.0
 70
0
  0
SEQEND
  5
283
  8
P_Building_Residential
  0
POLYLINE
  5
2C0
  8
P_Building_Residential
 66
1
 10
0.0
 20
0.0
 30
0.0
 70
1
  0
VERTEX
  5
2C2
  8
P_Building_Residential
 10
11739.28631801363
 20
12604.77474540114
 30
0.0
 70
0
  0
VERTEX
  5
2C3
  8
P_Building_Residential
 10
11955.116611770642
 20
12526.229593701175
 30
0.0
 70
0
  0
VERTEX
  5
2C4
  8
P_Building_Residential
 10
13371.480319005297
 20
11999.82675007936
 30
0.0
 70
0
  0
VERTEX
  5
2C5
  8
P_Building_Residential
 10
13567.956677142189
 20
12526.252753891746
 30
0.0
 70
0
  0
VERTEX
  5
2C6
  8
P_Building_Residential
 10
13605.127898715298
 20
12622.92781823433
 30
0.0
 70
0
  0
VERTEX
  5
2C7
  8
P_Building_Residential
 10
13808.440920959782
 20
12550.425082913413
 30
0.0
 70
0
  0
VERTEX
  5
2C8
  8
P_Building_Residential
 10
14950.12231550532
 20
15614.566772617567
 30
0.0
 70
0
  0
VERTEX
  5
2C9
  8
P_Building_Residential
 10
13319.83039153217
 20
16222.530524100142
 30
0.0
 70
0
  0
VERTEX
  5
2CA
  8
P_Building_Residential
 10
13099.079764951386
 20
15626.621831740804
 30
0.0
 70
0
  0
VERTEX
  5
2CB
  8
P_Building_Residential
 10
12595.35079973224
 20
15816.186529430226
 30
0.0
 70
0
  0
VERTEX
  5
2CC
  8
P_Building_Residential
 10
11895.896233409616
 20
16075.233356609453
 30
0.0
 70
0
  0
VERTEX
  5
2CD
  8
P_Building_Residential
 10
11820.033518885723
 20
16102.42194002195
 30
0.0
 70
0
  0
VERTEX
  5
2CE
  8
P_Building_Residential
 10
11739.243018563477
 20
15882.638281520505
 30
0.0
 70
0
  0
VERTEX
  5
2CF
  8
P_Building_Residential
 10
10894.922633821636
 20
13616.069251610299
 30
0.0
 70
0
  0
VERTEX
  5
2D0
  8
P_Building_Residential
 10
11130.097676200892
 20
13528.461001082078
 30
0.0
 70
0
  0
VERTEX
  5
2D1
  8
P_Building_Residential
 10
10901.758834570504
 20
12917.445585682906
 30
0.0
 70
0
  0
VERTEX
  5
2D2
  8
P_Building_Residential
 10
11739.28631801363
 20
12604.77474540114
 30
0.0
 70
0
  0
SEQEND
  5
2C1
  8
P_Building_Residential
  0
POLYLINE
  5
2D3
  8
P_Building_Misc
 66
1
 10
0.0
 20
0.0
 30
0.0
 70
1
  0
VERTEX
  5
2D5
  8
P_Building_Misc
 10
453.20336871240147
 20
5980.581915664466
 30
0.0
 70
0
  0
VERTEX
  5
2D6
  8
P_Building_Misc
 10
723.2765113493601
 20
5859.738077323045
 30
0.0
 70
0
  0
VERTEX
  5
2D7
  8
P_Building_Misc
 10
774.1047666300389
 20
5980.582137304603
 30
0.0
 70
0
  0
VERTEX
  5
2D8
  8
P_Building_Misc
 10
783.9669661113126
 20
6001.729847392439
 30
0.0
 70
0
  0
VERTEX
  5
2D9
  8
P_Building_Misc
 10
835.5539705601142
 20
5980.582192962478
 30
0.0
 70
0
  0
VERTEX
  5
2DA
  8
P_Building_Misc
 10
1783.844988375876
 20
5565.182213617038
 30
0.0
 70
0
  0
VERTEX
  5
2DB
  8
P_Building_Misc
 10
1915.8463891470205
 20
5868.803150023129
 30
0.0
 70
0
  0
VERTEX
  5
2DC
  8
P_Building_Misc
 10
1660.94574671272
 20
5980.583352218289
 30
0.0
 70
0
  0
VERTEX
  5
2DD
  8
P_Building_Misc
 10
568.515151255045
 20
6455.649866129647
 30
0.0
 70
0
  0
VERTEX
  5
2DE
  8
P_Building_Misc
 10
378.85740405198055
 20
6013.813982798436
 30
0.0
 70
0
  0
VERTEX
  5
2DF
  8
P_Building_Misc
 10
453.20336871240147
 20
5980.581915664466
 30
0.0
 70
0
  0
SEQEND
  5
2D4
  8
P_Building_Misc
  0
POLYLINE
  5
2E0
  8
P_Building_Misc
 66
1
 10
0.0
 20
0.0
 30
0.0
 70
1
  0
VERTEX
  5
2E2
  8
P_Building_Misc
 10
3362.5333403946674
 20
12406.067676986926
 30
0.0
 70
0
  0
VERTEX
  5
2E3
  8
P_Building_Misc
 10
3327.636064408197
 20
12526.155410888789
 30
0.0
 70
0
  0
VERTEX
  5
2E4
  8
P_Building_Misc
 10
3102.320139968031
 20
13625.071106736632
 30
0.0
 70
0
  0
VERTEX
  5
2E5
  8
P_Building_Misc
 10
3062.870530018807
 20
13937.752122637485
 30
0.0
 70
0
  0
VERTEX
  5
2E6
  8
P_Building_Misc
 10
3124.3177870871455
 20
14335.023402483705
 30
0.0
 70
0
  0
VERTEX
  5
2E7
  8
P_Building_Misc
 10
3195.627357145689
 20
14663.565184256615
 30
0.0
 70
0
  0
VERTEX
  5
2E8
  8
P_Building_Misc
 10
3317.7634017882838
 20
15343.306341884721
 30
0.0
 70
0
  0
VERTEX
  5
2E9
  8
P_Building_Misc
 10
3354.9354038662373
 20
15497.380970911196
 30
0.0
 70
0
  0
VERTEX
  5
2EA
  8
P_Building_Misc
 10
3474.7957991794556
 20
16060.055199803051
 30
0.0
 70
0
  0
VERTEX
  5
2EB
  8
P_Building_Misc
 10
3543.829294651392
 20
16372.735775964211
 30
0.0
 70
0
  0
VERTEX
  5
2EC
  8
P_Building_Misc
 10
3563.55288221657
 20
16526.810167276322
 30
0.0
 70
0
  0
VERTEX
  5
2ED
  8
P_Building_Misc
 10
3217.620402912425
 20
16616.685517554946
 30
0.0
 70
0
  0
VERTEX
  5
2EE
  8
P_Building_Misc
 10
3069.688769373111
 20
16655.958830269872
 30
0.0
 70
0
  0
VERTEX
  5
2EF
  8
P_Building_Misc
 10
2939.9641403948253
 20
16683.147969765436
 30
0.0
 70
0
  0
VERTEX
  5
2F0
  8
P_Building_Misc
 10
2912.6541551643413
 20
16547.95524806066
 30
0.0
 70
0
  0
VERTEX
  5
2F1
  8
P_Building_Misc
 10
2841.3445737514435
 20
16237.540574155864
 30
0.0
 70
0
  0
VERTEX
  5
2F2
  8
P_Building_Misc
 10
2952.1037093014043
 20
16201.288146340352
 30
0.0
 70
0
  0
VERTEX
  5
2F3
  8
P_Building_Misc
 10
2817.070657768267
 20
15596.319079768597
 30
0.0
 70
0
  0
VERTEX
  5
2F4
  8
P_Building_Misc
 10
2780.6571318152637
 20
15461.126169917547
 30
0.0
 70
0
  0
VERTEX
  5
2F5
  8
P_Building_Misc
 10
2574.3142657722037
 20
14467.948800673588
 30
0.0
 70
0
  0
VERTEX
  5
2F6
  8
P_Building_Misc
 10
2481.0045374004935
 20
14061.614309125514
 30
0.0
 70
0
  0
VERTEX
  5
2F7
  8
P_Building_Misc
 10
2613.7655751061857
 20
13511.023967020315
 30
0.0
 70
0
  0
VERTEX
  5
2F8
  8
P_Building_Misc
 10
2854.2530913018095
 20
12526.153764378734
 30
0.0
 70
0
  0
VERTEX
  5
2F9
  8
P_Building_Misc
 10
2880.805478860971
 20
12384.918434254
 30
0.0
 70
0
  0
VERTEX
  5
2FA
  8
P_Building_Misc
 10
2892.943828097076
 20
12285.978142772328
 30
0.0
 70
0
  0
VERTEX
  5
2FB
  8
P_Building_Misc
 10
3035.5656903552317
 20
12276.915381431903
 30
0.0
 70
0
  0
VERTEX
  5
2FC
  8
P_Building_Misc
 10
3416.397035744216
 20
12093.386195358536
 30
0.0
 70
0
  0
VERTEX
  5
2FD
  8
P_Building_Misc
 10
3389.085766235764
 20
12276.916659297054
 30
0.0
 70
0
  0
VERTEX
  5
2FE
  8
P_Building_Misc
 10
3362.5333403946674
 20
12406.067676986926
 30
0.0
 70
0
  0
SEQEND
  5
2E1
  8
P_Building_Misc
  0
POLYLINE
  5
2FF
  8
P_Building_Misc
 66
1
 10
0.0
 20
0.0
 30
0.0
 70
1
  0
VERTEX
  5
301
  8
P_Building_Misc
 10
9281.356289362184
 20
10708.262015434024
 30
0.0
 70
0
  0
VERTEX
  5
302
  8
P_Building_Misc
 10
9191.08159775934
 20
10509.624762813371
 30
0.0
 70
0
  0
VERTEX
  5
303
  8
P_Building_Misc
 10
9667.502483851347
 20
10295.888030890745
 30
0.0
 70
0
  0
VERTEX
  5
304
  8
P_Building_Misc
 10
10123.42693677512
 20
11283.787582606588
 30
0.0
 70
0
  0
VERTEX
  5
305
  8
P_Building_Misc
 10
9632.592648130116
 20
11488.460432950136
 30
0.0
 70
0
  0
VERTEX
  5
306
  8
P_Building_Misc
 10
9281.356289362184
 20
10708.262015434024
 30
0.0
 70
0
  0
SEQEND
  5
300
  8
P_Building_Misc
  0
POLYLINE
  5
307
  8
P_Building_Misc
 66
1
 10
0.0
 20
0.0
 30
0.0
 70
1
  0
VERTEX
  5
309
  8
P_Building_Misc
 10
3577.9849119487835
 20
12008.796597679004
 30
0.0
 70
0
  0
VERTEX
  5
30A
  8
P_Building_Misc
 10
3416.397035744216
 20
12093.386195358536
 30
0.0
 70
0
  0
VERTEX
  5
30B
  8
P_Building_Misc
 10
3035.5656903552317
 20
12276.915381431903
 30
0.0
 70
0
  0
VERTEX
  5
30C
  8
P_Building_Misc
 10
2902.8068910545685
 20
12005.773056001217
 30
0.0
 70
0
  0
VERTEX
  5
30D
  8
P_Building_Misc
 10
3445.9848419072036
 20
11743.696274450638
 30
0.0
 70
0
  0
VERTEX
  5
30E
  8
P_Building_Misc
 10
3577.9849119487835
 20
12008.796597679004
 30
0.0
 70
0
  0
SEQEND
  5
308
  8
P_Building_Misc
  0
POLYLINE
  5
30F
  8
P_Building_Misc
 66
1
 10
0.0
 20
0.0
 30
0.0
 70
1
  0
VERTEX
  5
311
  8
P_Building_Misc
 10
7710.26605634105
 20
7413.370882707502
 30
0.0
 70
0
  0
VERTEX
  5
312
  8
P_Building_Misc
 10
7889.303034805716
 20
7404.3091678200935
 30
0.0
 70
0
  0
VERTEX
  5
313
  8
P_Building_Misc
 10
8476.483779436801
 20
7362.019237309488
 30
0.0
 70
0
  0
VERTEX
  5
314
  8
P_Building_Misc
 10
8478.000551231578
 20
7413.377875064374
 30
0.0
 70
0
  0
VERTEX
  5
315
  8
P_Building_Misc
 10
8481.033990474787
 20
7527.046611052399
 30
0.0
 70
0
  0
VERTEX
  5
316
  8
P_Building_Misc
 10
8500.756867613118
 20
7686.409547346092
 30
0.0
 70
0
  0
VERTEX
  5
317
  8
P_Building_Misc
 10
8554.617763306334
 20
7882.0259101813335
 30
0.0
 70
0
  0
VERTEX
  5
318
  8
P_Building_Misc
 10
8591.78943243717
 20
8008.912200095142
 30
0.0
 70
0
  0
VERTEX
  5
319
  8
P_Building_Misc
 10
8726.822635389979
 20
8315.55444272934
 30
0.0
 70
0
  0
VERTEX
  5
31A
  8
P_Building_Misc
 10
9473.297606548156
 20
9919.760693108403
 30
0.0
 70
0
  0
VERTEX
  5
31B
  8
P_Building_Misc
 10
9310.951640351803
 20
9863.113595274981
 30
0.0
 70
0
  0
VERTEX
  5
31C
  8
P_Building_Misc
 10
9119.77773229502
 20
9808.732042595293
 30
0.0
 70
0
  0
VERTEX
  5
31D
  8
P_Building_Misc
 10
8977.155777387468
 20
9781.540803962274
 30
0.0
 70
0
  0
VERTEX
  5
31E
  8
P_Building_Misc
 10
8716.946301179602
 20
9757.369514100037
 30
0.0
 70
0
  0
VERTEX
  5
31F
  8
P_Building_Misc
 10
8336.114694963104
 20
9745.281510046874
 30
0.0
 70
0
  0
VERTEX
  5
320
  8
P_Building_Misc
 10
8066.042685040568
 20
9757.363368011944
 30
0.0
 70
0
  0
VERTEX
  5
321
  8
P_Building_Misc
 10
7803.556918708996
 20
9775.487549026446
 30
0.0
 70
0
  0
VERTEX
  5
322
  8
P_Building_Misc
 10
7535.760529932815
 20
9820.801548335985
 30
0.0
 70
0
  0
VERTEX
  5
323
  8
P_Building_Misc
 10
7297.550600034045
 20
9877.444945345605
 30
0.0
 70
0
  0
VERTEX
  5
324
  8
P_Building_Misc
 10
7050.236957301271
 20
9959.012296561326
 30
0.0
 70
0
  0
VERTEX
  5
325
  8
P_Building_Misc
 10
6745.267333985006
 20
10073.055949729576
 30
0.0
 70
0
  0
VERTEX
  5
326
  8
P_Building_Misc
 10
6558.644105627837
 20
10151.602796870375
 30
0.0
 70
0
  0
VERTEX
  5
327
  8
P_Building_Misc
 10
6426.642250916511
 20
10218.065725713377
 30
0.0
 70
0
  0
VERTEX
  5
328
  8
P_Building_Misc
 10
6468.367171908519
 20
10169.728652082247
 30
0.0
 70
0
  0
VERTEX
  5
329
  8
P_Building_Misc
 10
6510.092141700791
 20
10115.349404955672
 30
0.0
 70
0
  0
VERTEX
  5
32A
  8
P_Building_Misc
 10
6544.23080197865
 20
10064.746458879843
 30
0.0
 70
0
  0
VERTEX
  5
32B
  8
P_Building_Misc
 10
6578.369494327985
 20
10010.367152908872
 30
0.0
 70
0
  0
VERTEX
  5
32C
  8
P_Building_Misc
 10
6610.232349484831
 20
9949.94565453577
 30
0.0
 70
0
  0
VERTEX
  5
32D
  8
P_Building_Misc
 10
6637.543436008768
 20
9889.524119128231
 30
0.0
 70
0
  0
VERTEX
  5
32E
  8
P_Building_Misc
 10
6661.820005068078
 20
9829.857829287013
 30
0.0
 70
0
  0
VERTEX
  5
32F
  8
P_Building_Misc
 10
6683.820696509383
 20
9769.436247356289
 30
0.0
 70
0
  0
VERTEX
  5
330
  8
P_Building_Misc
 10
6701.2696398327635
 20
9705.993539554462
 30
0.0
 70
0
  0
VERTEX
  5
331
  8
P_Building_Misc
 10
6715.684086846187
 20
9640.284989190406
 30
0.0
 70
0
  0
VERTEX
  5
332
  8
P_Building_Misc
 10
6725.546744265156
 20
9576.842215887898
 30
0.0
 70
0
  0
VERTEX
  5
333
  8
P_Building_Misc
 10
6733.1335385350985
 20
9510.37833236364
 30
0.0
 70
0
  0
VERTEX
  5
334
  8
P_Building_Misc
 10
6735.4099010934815
 20
9447.690764548122
 30
0.0
 70
0
  0
VERTEX
  5
335
  8
P_Building_Misc
 10
6735.410404818898
 20
9381.226814177764
 30
0.0
 70
0
  0
VERTEX
  5
336
  8
P_Building_Misc
 10
6728.583267784019
 20
9311.741718321508
 30
0.0
 70
0
  0
VERTEX
  5
337
  8
P_Building_Misc
 10
6723.2733367868395
 20
9249.054079127949
 30
0.0
 70
0
  0
VERTEX
  5
338
  8
P_Building_Misc
 10
6713.411634409282
 20
9185.61112886739
 30
0.0
 70
0
  0
VERTEX
  5
339
  8
P_Building_Misc
 10
6698.998153958162
 20
9122.168139872914
 30
0.0
 70
0
  0
VERTEX
  5
33A
  8
P_Building_Misc
 10
5943.414634771722
 20
7413.35731018776
 30
0.0
 70
0
  0
VERTEX
  5
33B
  8
P_Building_Misc
 10
5645.276965599712
 20
6738.895565542698
 30
0.0
 70
0
  0
VERTEX
  5
33C
  8
P_Building_Misc
 10
6070.108980713702
 20
6976.8097757609585
 30
0.0
 70
0
  0
VERTEX
  5
33D
  8
P_Building_Misc
 10
6426.664340939351
 20
7163.364994803907
 30
0.0
 70
0
  0
VERTEX
  5
33E
  8
P_Building_Misc
 10
6613.286931805008
 20
7253.243972474764
 30
0.0
 70
0
  0
VERTEX
  5
33F
  8
P_Building_Misc
 10
6912.186770715243
 20
7355.963502836582
 30
0.0
 70
0
  0
VERTEX
  5
340
  8
P_Building_Misc
 10
7305.157167719611
 20
7410.346365175803
 30
0.0
 70
0
  0
VERTEX
  5
341
  8
P_Building_Misc
 10
7399.986008248607
 20
7413.368245048243
 30
0.0
 70
0
  0
VERTEX
  5
342
  8
P_Building_Misc
 10
7590.402321764481
 20
7419.03440470506
 30
0.0
 70
0
  0
VERTEX
  5
343
  8
P_Building_Misc
 10
7710.26605634105
 20
7413.370882707502
 30
0.0
 70
0
  0
SEQEND
  5
310
  8
P_Building_Misc
  0
POLYLINE
  5
344
  8
P_Building_Misc
 66
1
 10
0.0
 20
0.0
 30
0.0
 70
1
  0
VERTEX
  5
346
  8
P_Building_Misc
 10
10577.90800213933
 20
5980.644751988856
 30
0.0
 70
0
  0
VERTEX
  5
347
  8
P_Building_Misc
 10
10319.979544831749
 20
5423.248554900849
 30
0.0
 70
0
  0
VERTEX
  5
348
  8
P_Building_Misc
 10
10624.94319541061
 20
5980.6453129579195
 30
0.0
 70
0
  0
VERTEX
  5
349
  8
P_Building_Misc
 10
11408.591810853122
 20
7413.410663925656
 30
0.0
 70
0
  0
VERTEX
  5
34A
  8
P_Building_Misc
 10
11739.34690705746
 20
8018.011484048023
 30
0.0
 70
0
  0
VERTEX
  5
34B
  8
P_Building_Misc
 10
12917.089339932692
 20
10169.798985862266
 30
0.0
 70
0
  0
VERTEX
  5
34C
  8
P_Building_Misc
 10
12583.290554951765
 20
10326.135389327676
 30
0.0
 70
0
  0
VERTEX
  5
34D
  8
P_Building_Misc
 10
11739.34055185643
 20
8499.120472616332
 30
0.0
 70
0
  0
VERTEX
  5
34E
  8
P_Building_Misc
 10
11238.658483674151
 20
7413.408498721029
 30
0.0
 70
0
  0
VERTEX
  5
34F
  8
P_Building_Misc
 10
10577.90800213933
 20
5980.644751988856
 30
0.0
 70
0
  0
SEQEND
  5
345
  8
P_Building_Misc
  0
POLYLINE
  5
350
  8
P_Building_Misc
 66
1
 10
0.0
 20
0.0
 30
0.0
 70
1
  0
VERTEX
  5
352
  8
P_Building_Misc
 10
9191.08159775934
 20
10509.624762813371
 30
0.0
 70
0
  0
VERTEX
  5
353
  8
P_Building_Misc
 10
9175.90937560784
 20
10476.392670824547
 30
0.0
 70
0
  0
VERTEX
  5
354
  8
P_Building_Misc
 10
9080.324539292636
 20
10248.299736882092
 30
0.0
 70
0
  0
VERTEX
  5
355
  8
P_Building_Misc
 10
9539.296916507245
 20
10049.66812850811
 30
0.0
 70
0
  0
VERTEX
  5
356
  8
P_Building_Misc
 10
9667.502483851347
 20
10295.888030890745
 30
0.0
 70
0
  0
VERTEX
  5
357
  8
P_Building_Misc
 10
9191.08159775934
 20
10509.624762813371
 30
0.0
 70
0
  0
SEQEND
  5
351
  8
P_Building_Misc
  0
POLYLINE
  5
358
  8
P_Building_Misc
 66
1
 10
0.0
 20
0.0
 30
0.0
 70
1
  0
VERTEX
  5
35A
  8
P_Building_Misc
 10
5331.17097365985
 20
12165.146257278167
 30
0.0
 70
0
  0
VERTEX
  5
35B
  8
P_Building_Misc
 10
5188.551212637065
 20
11807.147434530973
 30
0.0
 70
0
  0
VERTEX
  5
35C
  8
P_Building_Misc
 10
5458.623116959222
 20
11704.43230616888
 30
0.0
 70
0
  0
VERTEX
  5
35D
  8
P_Building_Misc
 10
5596.691038336094
 20
12060.165375009907
 30
0.0
 70
0
  0
VERTEX
  5
35E
  8
P_Building_Misc
 10
5331.17097365985
 20
12165.146257278167
 30
0.0
 70
0
  0
SEQEND
  5
359
  8
P_Building_Misc
  0
POLYLINE
  5
35F
  8
P_Site
 66
1
 10
0.0
 20
0.0
 30
0.0
 70
1
  0
VERTEX
  5
361
  8
P_Site
 10
-1349.3106891021669
 20
3295.575980853246
 30
0.0
 70
0
  0
VERTEX
  5
362
  8
P_Site
 10
-2385.6113602046476
 20
1050.1358827295546
 30
0.0
 70
0
  0
VERTEX
  5
363
  8
P_Site
 10
-1665.6661747501325
 20
667.9628806550057
 30
0.0
 70
0
  0
VERTEX
  5
364
  8
P_Site
 10
-1501.8000925917713
 20
998.774961868817
 30
0.0
 70
0
  0
VERTEX
  5
365
  8
P_Site
 10
-632.4030612739042
 20
601.4969433834929
 30
0.0
 70
0
  0
VERTEX
  5
366
  8
P_Site
 10
165.68246406600446
 20
2338.6381003143356
 30
0.0
 70
0
  0
VERTEX
  5
367
  8
P_Site
 10
-30.804052710914416
 20
2760.0831794423407
 30
0.0
 70
0
  0
VERTEX
  5
368
  8
P_Site
 10
-1349.3106891021669
 20
3295.575980853246
 30
0.0
 70
0
  0
SEQEND
  5
360
  8
P_Site
  0
POLYLINE
  5
369
  8
P_Site
 66
1
 10
0.0
 20
0.0
 30
0.0
 70
1
  0
VERTEX
  5
36B
  8
P_Site
 10
1761.0851901032852
 20
5980.583544967316
 30
0.0
 70
0
  0
VERTEX
  5
36C
  8
P_Site
 10
1375.6997708193858
 20
6167.135784331242
 30
0.0
 70
0
  0
VERTEX
  5
36D
  8
P_Site
 10
1192.1107132224936
 20
6253.99212805751
 30
0.0
 70
0
  0
VERTEX
  5
36E
  8
P_Site
 10
897.0027552135864
 20
6395.983437356178
 30
0.0
 70
0
  0
VERTEX
  5
36F
  8
P_Site
 10
108.78427889107545
 20
6757.0042281361875
 30
0.0
 70
0
  0
VERTEX
  5
370
  8
P_Site
 10
-961.6442828378088
 20
7184.489951301069
 30
0.0
 70
0
  0
VERTEX
  5
371
  8
P_Site
 10
-1007.9208838124177
 20
7093.857112854475
 30
0.0
 70
0
  0
VERTEX
  5
372
  8
P_Site
 10
-1167.233592796085
 20
6973.768715165185
 30
0.0
 70
0
  0
VERTEX
  5
373
  8
P_Site
 10
-1325.0290065490153
 20
6904.2837056282015
 30
0.0
 70
0
  0
VERTEX
  5
374
  8
P_Site
 10
-1535.9287943979725
 20
6747.942255848812
 30
0.0
 70
0
  0
VERTEX
  5
375
  8
P_Site
 10
-1749.1044577296122
 20
6639.183127903138
 30
0.0
 70
0
  0
VERTEX
  5
376
  8
P_Site
 10
-2080.62664216413
 20
6561.390565345177
 30
0.0
 70
0
  0
VERTEX
  5
377
  8
P_Site
 10
-2370.42548226382
 20
5980.5849613398495
 30
0.0
 70
0
  0
VERTEX
  5
378
  8
P_Site
 10
-2677.6733246922367
 20
5375.610310357179
 30
0.0
 70
0
  0
VERTEX
  5
379
  8
P_Site
 10
-2559.327175192556
 20
5186.035774607303
 30
0.0
 70
0
  0
VERTEX
  5
37A
  8
P_Site
 10
-2424.290713509282
 20
5119.571130071365
 30
0.0
 70
0
  0
VERTEX
  5
37B
  8
P_Site
 10
-2186.838901946502
 20
5005.523863389949
 30
0.0
 70
0
  0
VERTEX
  5
37C
  8
P_Site
 10
-1555.6567748560394
 20
4713.230722289474
 30
0.0
 70
0
  0
VERTEX
  5
37D
  8
P_Site
 10
-1356.8950246355123
 20
4611.268114169752
 30
0.0
 70
0
  0
VERTEX
  5
37E
  8
P_Site
 10
-1155.0986882544873
 20
4514.592469101683
 30
0.0
 70
0
  0
VERTEX
  5
37F
  8
P_Site
 10
-1086.8217230884854
 20
4481.360225646964
 30
0.0
 70
0
  0
VERTEX
  5
380
  8
P_Site
 10
-833.4382571921884
 20
4376.376537329587
 30
0.0
 70
0
  0
VERTEX
  5
381
  8
P_Site
 10
-668.8148358867663
 20
4306.890966327859
 30
0.0
 70
0
  0
VERTEX
  5
382
  8
P_Site
 10
-477.63922212973273
 20
4219.278768410035
 30
0.0
 70
0
  0
VERTEX
  5
383
  8
P_Site
 10
-173.42715579495996
 20
4078.0419331150897
 30
0.0
 70
0
  0
VERTEX
  5
384
  8
P_Site
 10
462.30809737861983
 20
3783.4840913593707
 30
0.0
 70
0
  0
VERTEX
  5
385
  8
P_Site
 10
1140.5273041920439
 20
3479.108057666335
 30
0.0
 70
0
  0
VERTEX
  5
386
  8
P_Site
 10
1343.8414278039281
 20
3389.2303550281677
 30
0.0
 70
0
  0
VERTEX
  5
387
  8
P_Site
 10
1719.3657626774432
 20
3220.048885060639
 30
0.0
 70
0
  0
VERTEX
  5
388
  8
P_Site
 10
2016.7507672987288
 20
3096.939288493542
 30
0.0
 70
0
  0
VERTEX
  5
389
  8
P_Site
 10
2664.625545105772
 20
2822.775225734057
 30
0.0
 70
0
  0
VERTEX
  5
38A
  8
P_Site
 10
3384.571155633815
 20
2522.1770951321746
 30
0.0
 70
0
  0
VERTEX
  5
38B
  8
P_Site
 10
5090.746010302857
 20
1733.6746842914763
 30
0.0
 70
0
  0
VERTEX
  5
38C
  8
P_Site
 10
5517.859295804516
 20
1516.9122396090752
 30
0.0
 70
0
  0
VERTEX
  5
38D
  8
P_Site
 10
6580.711840217016
 20
1035.0514602281273
 30
0.0
 70
0
  0
VERTEX
  5
38E
  8
P_Site
 10
6843.958124847965
 20
1104.539134261946
 30
0.0
 70
0
  0
VERTEX
  5
38F
  8
P_Site
 10
7060.168398884659
 20
1239.7357855826267
 30
0.0
 70
0
  0
VERTEX
  5
390
  8
P_Site
 10
7170.169312507189
 20
1405.142762672222
 30
0.0
 70
0
  0
VERTEX
  5
391
  8
P_Site
 10
7185.340452115099
 20
1600.760101432185
 30
0.0
 70
0
  0
VERTEX
  5
392
  8
P_Site
 10
7150.440412025361
 20
1947.4326967121954
 30
0.0
 70
0
  0
VERTEX
  5
393
  8
P_Site
 10
7015.39952706392
 20
2422.501641867157
 30
0.0
 70
0
  0
VERTEX
  5
394
  8
P_Site
 10
6713.4593803384905
 20
2865.092139338139
 30
0.0
 70
0
  0
VERTEX
  5
395
  8
P_Site
 10
6001.854647856356
 20
3647.5543840490823
 30
0.0
 70
0
  0
VERTEX
  5
396
  8
P_Site
 10
5132.456082224973
 20
4312.9477464040465
 30
0.0
 70
0
  0
VERTEX
  5
397
  8
P_Site
 10
4786.517909105992
 20
4547.836764469013
 30
0.0
 70
0
  0
VERTEX
  5
398
  8
P_Site
 10
3487.7352170100457
 20
5149.7856978059135
 30
0.0
 70
0
  0
VERTEX
  5
399
  8
P_Site
 10
3170.626125462592
 20
5306.12657755236
 30
0.0
 70
0
  0
VERTEX
  5
39A
  8
P_Site
 10
2642.6170610964464
 20
5537.994437243727
 30
0.0
 70
0
  0
VERTEX
  5
39B
  8
P_Site
 10
2304.266502530584
 20
5712.462102453319
 30
0.0
 70
0
  0
VERTEX
  5
39C
  8
P_Site
 10
2129.7808532842187
 20
5797.052494921638
 30
0.0
 70
0
  0
VERTEX
  5
39D
  8
P_Site
 10
1847.5693426950536
 20
5938.288316620121
 30
0.0
 70
0
  0
VERTEX
  5
39E
  8
P_Site
 10
1761.0851901032852
 20
5980.583544967316
 30
0.0
 70
0
  0
SEQEND
  5
36A
  8
P_Site
  0
POLYLINE
  5
39F
  8
P_Site
 66
1
 10
0.0
 20
0.0
 30
0.0
 70
1
  0
VERTEX
  5
3A1
  8
P_Site
 10
9080.324539292636
 20
10248.299736882092
 30
0.0
 70
0
  0
VERTEX
  5
3A2
  8
P_Site
 10
8412.728610145014
 20
10548.8911572403
 30
0.0
 70
0
  0
VERTEX
  5
3A3
  8
P_Site
 10
8657.767851868854
 20
10310.983048640483
 30
0.0
 70
0
  0
VERTEX
  5
3A4
  8
P_Site
 10
9036.32531471474
 20
10127.455846281753
 30
0.0
 70
0
  0
VERTEX
  5
3A5
  8
P_Site
 10
9473.297606548156
 20
9919.760693108403
 30
0.0
 70
0
  0
VERTEX
  5
3A6
  8
P_Site
 10
9539.296916507245
 20
10049.66812850811
 30
0.0
 70
0
  0
VERTEX
  5
3A7
  8
P_Site
 10
9667.502483851347
 20
10295.888030890745
 30
0.0
 70
0
  0
VERTEX
  5
3A8
  8
P_Site
 10
9191.08159775934
 20
10509.624762813371
 30
0.0
 70
0
  0
VERTEX
  5
3A9
  8
P_Site
 10
9175.90937560784
 20
10476.392670824547
 30
0.0
 70
0
  0
VERTEX
  5
3AA
  8
P_Site
 10
9080.324539292636
 20
10248.299736882092
 30
0.0
 70
0
  0
SEQEND
  5
3A0
  8
P_Site
  0
POLYLINE
  5
3AB
  8
P_Site
 66
1
 10
0.0
 20
0.0
 30
0.0
 70
1
  0
VERTEX
  5
3AD
  8
P_Site
 10
9667.502483851347
 20
10295.888030890745
 30
0.0
 70
0
  0
VERTEX
  5
3AE
  8
P_Site
 10
9998.256464055848
 20
11009.622899537962
 30
0.0
 70
0
  0
VERTEX
  5
3AF
  8
P_Site
 10
7698.088652474005
 20
11951.422216342355
 30
0.0
 70
0
  0
VERTEX
  5
3B0
  8
P_Site
 10
7435.605556835228
 20
11728.615295868725
 30
0.0
 70
0
  0
VERTEX
  5
3B1
  8
P_Site
 10
9131.903981924916
 20
10958.255157401047
 30
0.0
 70
0
  0
VERTEX
  5
3B2
  8
P_Site
 10
9326.114333288058
 20
10804.937176151121
 30
0.0
 70
0
  0
VERTEX
  5
3B3
  8
P_Site
 10
9191.08159775934
 20
10509.624762813371
 30
0.0
 70
0
  0
VERTEX
  5
3B4
  8
P_Site
 10
9175.90937560784
 20
10476.392670824547
 30
0.0
 70
0
  0
VERTEX
  5
3B5
  8
P_Site
 10
9080.324539292636
 20
10248.299736882092
 30
0.0
 70
0
  0
VERTEX
  5
3B6
  8
P_Site
 10
9539.296916507245
 20
10049.66812850811
 30
0.0
 70
0
  0
VERTEX
  5
3B7
  8
P_Site
 10
9667.502483851347
 20
10295.888030890745
 30
0.0
 70
0
  0
SEQEND
  5
3AC
  8
P_Site
  0
POLYLINE
  5
3B8
  8
P_Site
 66
1
 10
0.0
 20
0.0
 30
0.0
 70
1
  0
VERTEX
  5
3BA
  8
P_Site
 10
6063.250559130656
 20
11482.386749237485
 30
0.0
 70
0
  0
VERTEX
  5
3BB
  8
P_Site
 10
6170.973318219803
 20
11819.238035526754
 30
0.0
 70
0
  0
VERTEX
  5
3BC
  8
P_Site
 10
5942.626022055234
 20
11897.029300109089
 30
0.0
 70
0
  0
VERTEX
  5
3BD
  8
P_Site
 10
5596.691038336094
 20
12060.165375009907
 30
0.0
 70
0
  0
VERTEX
  5
3BE
  8
P_Site
 10
5331.17097365985
 20
12165.146257278167
 30
0.0
 70
0
  0
VERTEX
  5
3BF
  8
P_Site
 10
5188.551212637065
 20
11807.147434530973
 30
0.0
 70
0
  0
VERTEX
  5
3C0
  8
P_Site
 10
5458.623116959222
 20
11704.43230616888
 30
0.0
 70
0
  0
VERTEX
  5
3C1
  8
P_Site
 10
6063.250559130656
 20
11482.386749237485
 30
0.0
 70
0
  0
SEQEND
  5
3B9
  8
P_Site
  0
POLYLINE
  5
3C2
  8
P_Site
 66
1
 10
0.0
 20
0.0
 30
0.0
 70
1
  0
VERTEX
  5
3C4
  8
P_Site
 10
5331.17097365985
 20
12165.146257278167
 30
0.0
 70
0
  0
VERTEX
  5
3C5
  8
P_Site
 10
5090.685997058141
 20
12210.461037072564
 30
0.0
 70
0
  0
VERTEX
  5
3C6
  8
P_Site
 10
4992.82516421693
 20
11849.441440954139
 30
0.0
 70
0
  0
VERTEX
  5
3C7
  8
P_Site
 10
5188.551212637065
 20
11807.147434530973
 30
0.0
 70
0
  0
VERTEX
  5
3C8
  8
P_Site
 10
5458.623116959222
 20
11704.43230616888
 30
0.0
 70
0
  0
VERTEX
  5
3C9
  8
P_Site
 10
5596.691038336094
 20
12060.165375009907
 30
0.0
 70
0
  0
VERTEX
  5
3CA
  8
P_Site
 10
5331.17097365985
 20
12165.146257278167
 30
0.0
 70
0
  0
SEQEND
  5
3C3
  8
P_Site
  0
POLYLINE
  5
3CB
  8
P_Site
 66
1
 10
0.0
 20
0.0
 30
0.0
 70
1
  0
VERTEX
  5
3CD
  8
P_Site
 10
9667.502483851347
 20
10295.888030890745
 30
0.0
 70
0
  0
VERTEX
  5
3CE
  8
P_Site
 10
9998.256464055848
 20
11009.622899537962
 30
0.0
 70
0
  0
VERTEX
  5
3CF
  8
P_Site
 10
10123.42693677512
 20
11283.787582606588
 30
0.0
 70
0
  0
VERTEX
  5
3D0
  8
P_Site
 10
10160.598731590104
 20
11367.623038176112
 30
0.0
 70
0
  0
VERTEX
  5
3D1
  8
P_Site
 10
10281.217130336327
 20
11659.914068313603
 30
0.0
 70
0
  0
VERTEX
  5
3D2
  8
P_Site
 10
9787.34857129022
 20
11858.544551562938
 30
0.0
 70
0
  0
VERTEX
  5
3D3
  8
P_Site
 10
9632.592648130116
 20
11488.460432950136
 30
0.0
 70
0
  0
VERTEX
  5
3D4
  8
P_Site
 10
9191.08159775934
 20
10509.624762813371
 30
0.0
 70
0
  0
VERTEX
  5
3D5
  8
P_Site
 10
9175.90937560784
 20
10476.392670824547
 30
0.0
 70
0
  0
VERTEX
  5
3D6
  8
P_Site
 10
9080.324539292636
 20
10248.299736882092
 30
0.0
 70
0
  0
VERTEX
  5
3D7
  8
P_Site
 10
9539.296916507245
 20
10049.66812850811
 30
0.0
 70
0
  0
VERTEX
  5
3D8
  8
P_Site
 10
9667.502483851347
 20
10295.888030890745
 30
0.0
 70
0
  0
SEQEND
  5
3CC
  8
P_Site
  0
POLYLINE
  5
3D9
  8
P_Site
 66
1
 10
0.0
 20
0.0
 30
0.0
 70
1
  0
VERTEX
  5
3DB
  8
P_Site
 10
5124.824065078438
 20
12234.629866658463
 30
0.0
 70
0
  0
VERTEX
  5
3DC
  8
P_Site
 10
4953.374120129275
 20
12285.987238586164
 30
0.0
 70
0
  0
VERTEX
  5
3DD
  8
P_Site
 10
4832.754333119213
 20
11942.338774844116
 30
0.0
 70
0
  0
VERTEX
  5
3DE
  8
P_Site
 10
5188.551212637065
 20
11807.147434530973
 30
0.0
 70
0
  0
VERTEX
  5
3DF
  8
P_Site
 10
5458.623116959222
 20
11704.43230616888
 30
0.0
 70
0
  0
VERTEX
  5
3E0
  8
P_Site
 10
5596.691038336094
 20
12060.165375009907
 30
0.0
 70
0
  0
VERTEX
  5
3E1
  8
P_Site
 10
5331.17097365985
 20
12165.146257278167
 30
0.0
 70
0
  0
VERTEX
  5
3E2
  8
P_Site
 10
5124.824065078438
 20
12234.629866658463
 30
0.0
 70
0
  0
SEQEND
  5
3DA
  8
P_Site
  0
POLYLINE
  5
3E3
  8
P_Elevator
 66
1
 10
0.0
 20
0.0
 30
0.0
 70
1
  0
VERTEX
  5
3E5
  8
P_Elevator
 10
9667.502483851347
 20
10295.888030890745
 30
0.0
 70
0
  0
VERTEX
  5
3E6
  8
P_Elevator
 10
9191.08159775934
 20
10509.624762813371
 30
0.0
 70
0
  0
VERTEX
  5
3E7
  8
P_Elevator
 10
9175.90937560784
 20
10476.392670824547
 30
0.0
 70
0
  0
VERTEX
  5
3E8
  8
P_Elevator
 10
9080.324539292636
 20
10248.299736882092
 30
0.0
 70
0
  0
VERTEX
  5
3E9
  8
P_Elevator
 10
9539.296916507245
 20
10049.66812850811
 30
0.0
 70
0
  0
VERTEX
  5
3EA
  8
P_Elevator
 10
9667.502483851347
 20
10295.888030890745
 30
0.0
 70
0
  0
SEQEND
  5
3E4
  8
P_Elevator
  0
POLYLINE
  5
3EB
  8
P_Elevator
 66
1
 10
0.0
 20
0.0
 30
0.0
 70
1
  0
VERTEX
  5
3ED
  8
P_Elevator
 10
9667.502483851347
 20
10295.888030890745
 30
0.0
 70
0
  0
VERTEX
  5
3EE
  8
P_Elevator
 10
9191.08159775934
 20
10509.624762813371
 30
0.0
 70
0
  0
VERTEX
  5
3EF
  8
P_Elevator
 10
9175.90937560784
 20
10476.392670824547
 30
0.0
 70
0
  0
VERTEX
  5
3F0
  8
P_Elevator
 10
9080.324539292636
 20
10248.299736882092
 30
0.0
 70
0
  0
VERTEX
  5
3F1
  8
P_Elevator
 10
9539.296916507245
 20
10049.66812850811
 30
0.0
 70
0
  0
VERTEX
  5
3F2
  8
P_Elevator
 10
9667.502483851347
 20
10295.888030890745
 30
0.0
 70
0
  0
SEQEND
  5
3EC
  8
P_Elevator
  0
POLYLINE
  5
3F3
  8
P_Elevator
 66
1
 10
0.0
 20
0.0
 30
0.0
 70
1
  0
VERTEX
  5
3F5
  8
P_Elevator
 10
9667.502483851347
 20
10295.888030890745
 30
0.0
 70
0
  0
VERTEX
  5
3F6
  8
P_Elevator
 10
9191.08159775934
 20
10509.624762813371
 30
0.0
 70
0
  0
VERTEX
  5
3F7
  8
P_Elevator
 10
9175.90937560784
 20
10476.392670824547
 30
0.0
 70
0
  0
VERTEX
  5
3F8
  8
P_Elevator
 10
9080.324539292636
 20
10248.299736882092
 30
0.0
 70
0
  0
VERTEX
  5
3F9
  8
P_Elevator
 10
9539.296916507245
 20
10049.66812850811
 30
0.0
 70
0
  0
VERTEX
  5
3FA
  8
P_Elevator
 10
9667.502483851347
 20
10295.888030890745
 30
0.0
 70
0
  0
SEQEND
  5
3F4
  8
P_Elevator
  0
POLYLINE
  5
3FB
  8
P_Elevator
 66
1
 10
0.0
 20
0.0
 30
0.0
 70
1
  0
VERTEX
  5
3FD
  8
P_Elevator
 10
5596.691038336094
 20
12060.165375009907
 30
0.0
 70
0
  0
VERTEX
  5
3FE
  8
P_Elevator
 10
5331.17097365985
 20
12165.146257278167
 30
0.0
 70
0
  0
VERTEX
  5
3FF
  8
P_Elevator
 10
5188.551212637065
 20
11807.147434530973
 30
0.0
 70
0
  0
VERTEX
  5
400
  8
P_Elevator
 10
5458.623116959222
 20
11704.43230616888
 30
0.0
 70
0
  0
VERTEX
  5
401
  8
P_Elevator
 10
5596.691038336094
 20
12060.165375009907
 30
0.0
 70
0
  0
SEQEND
  5
3FC
  8
P_Elevator
  0
POLYLINE
  5
402
  8
P_Elevator
 66
1
 10
0.0
 20
0.0
 30
0.0
 70
1
  0
VERTEX
  5
404
  8
P_Elevator
 10
5596.691038336094
 20
12060.165375009907
 30
0.0
 70
0
  0
VERTEX
  5
405
  8
P_Elevator
 10
5331.17097365985
 20
12165.146257278167
 30
0.0
 70
0
  0
VERTEX
  5
406
  8
P_Elevator
 10
5188.551212637065
 20
11807.147434530973
 30
0.0
 70
0
  0
VERTEX
  5
407
  8
P_Elevator
 10
5458.623116959222
 20
11704.43230616888
 30
0.0
 70
0
  0
VERTEX
  5
408
  8
P_Elevator
 10
5596.691038336094
 20
12060.165375009907
 30
0.0
 70
0
  0
SEQEND
  5
403
  8
P_Elevator
  0
POLYLINE
  5
409
  8
P_Elevator
 66
1
 10
0.0
 20
0.0
 30
0.0
 70
1
  0
VERTEX
  5
40B
  8
P_Elevator
 10
5596.691038336094
 20
12060.165375009907
 30
0.0
 70
0
  0
VERTEX
  5
40C
  8
P_Elevator
 10
5331.17097365985
 20
12165.146257278167
 30
0.0
 70
0
  0
VERTEX
  5
40D
  8
P_Elevator
 10
5188.551212637065
 20
11807.147434530973
 30
0.0
 70
0
  0
VERTEX
  5
40E
  8
P_Elevator
 10
5458.623116959222
 20
11704.43230616888
 30
0.0
 70
0
  0
VERTEX
  5
40F
  8
P_Elevator
 10
5596.691038336094
 20
12060.165375009907
 30
0.0
 70
0
  0
SEQEND
  5
40A
  8
P_Elevator
  0
POLYLINE
  5
410
  8
P_Water
 66
1
 10
0.0
 20
0.0
 30
0.0
 70
1
  0
VERTEX
  5
412
  8
P_Water
 10
1223.9675580143285
 20
10389.489942137012
 30
0.0
 70
0
  0
VERTEX
  5
413
  8
P_Water
 10
909.1366436311198
 20
10521.662039599672
 30
0.0
 70
0
  0
VERTEX
  5
414
  8
P_Water
 10
900.0333718922956
 20
10257.317060578109
 30
0.0
 70
0
  0
VERTEX
  5
415
  8
P_Water
 10
941.7581150673996
 20
10091.157368939264
 30
0.0
 70
0
  0
VERTEX
  5
416
  8
P_Water
 10
1000.1727441651283
 20
9892.520981494074
 30
0.0
 70
0
  0
VERTEX
  5
417
  8
P_Water
 10
1223.9675580143285
 20
10389.489942137012
 30
0.0
 70
0
  0
SEQEND
  5
411
  8
P_Water
  0
POLYLINE
  5
418
  8
P_Water
 66
1
 10
0.0
 20
0.0
 30
0.0
 70
1
  0
VERTEX
  5
41A
  8
P_Water
 10
1142.793562456171
 20
10979.356558225158
 30
0.0
 70
0
  0
VERTEX
  5
41B
  8
P_Water
 10
1430.3137366843314
 20
10850.205650647236
 30
0.0
 70
0
  0
VERTEX
  5
41C
  8
P_Water
 10
1665.48744412755
 20
11367.56651498425
 30
0.0
 70
0
  0
VERTEX
  5
41D
  8
P_Water
 10
1142.793562456171
 20
10979.356558225158
 30
0.0
 70
0
  0
SEQEND
  5
419
  8
P_Water
  0
POLYLINE
  5
41E
  8
P_Water
 66
1
 10
0.0
 20
0.0
 30
0.0
 70
1
  0
VERTEX
  5
420
  8
P_Water
 10
3474.8127353489926
 20
11728.590982795384
 30
0.0
 70
0
  0
VERTEX
  5
421
  8
P_Water
 10
6232.432208438618
 20
10380.447697308913
 30
0.0
 70
0
  0
VERTEX
  5
422
  8
P_Water
 10
5883.460118280165
 20
10838.139639597937
 30
0.0
 70
0
  0
VERTEX
  5
423
  8
P_Water
 10
5625.525187845903
 20
11060.942876171723
 30
0.0
 70
0
  0
VERTEX
  5
424
  8
P_Water
 10
5394.901237755913
 20
11241.451143639379
 30
0.0
 70
0
  0
VERTEX
  5
425
  8
P_Water
 10
4992.8274640431455
 20
11440.084946392344
 30
0.0
 70
0
  0
VERTEX
  5
426
  8
P_Water
 10
4675.720511384283
 20
11566.213378785164
 30
0.0
 70
0
  0
VERTEX
  5
427
  8
P_Water
 10
4366.200021351526
 20
11671.949647463913
 30
0.0
 70
0
  0
VERTEX
  5
428
  8
P_Water
 10
4005.8518034972026
 20
11728.593217820195
 30
0.0
 70
0
  0
VERTEX
  5
429
  8
P_Water
 10
3474.8127353489926
 20
11728.590982795384
 30
0.0
 70
0
  0
SEQEND
  5
41F
  8
P_Water
  0
POLYLINE
  5
42A
  8
P_Water
 66
1
 10
0.0
 20
0.0
 30
0.0
 70
1
  0
VERTEX
  5
42C
  8
P_Water
 10
35981.94954187442
 20
3359.746656410267
 30
0.0
 70
0
  0
VERTEX
  5
42D
  8
P_Water
 10
36597.972823583026
 20
3064.4583514296796
 30
0.0
 70
0
  0
VERTEX
  5
42E
  8
P_Water
 10
36597.87848897371
 20
5355.212123625483
 30
0.0
 70
0
  0
VERTEX
  5
42F
  8
P_Water
 10
36597.854197696484
 20
5945.082160477768
 30
0.0
 70
0
  0
VERTEX
  5
430
  8
P_Water
 10
36556.12793661103
 20
5981.333646428914
 30
0.0
 70
0
  0
VERTEX
  5
431
  8
P_Water
 10
35968.925592955246
 20
6501.694050091436
 30
0.0
 70
0
  0
VERTEX
  5
432
  8
P_Water
 10
35783.0656607763
 20
6381.597874957666
 30
0.0
 70
0
  0
VERTEX
  5
433
  8
P_Water
 10
34406.86759302101
 20
7414.003477436934
 30
0.0
 70
0
  0
VERTEX
  5
434
  8
P_Water
 10
32983.63635628979
 20
8481.528468336945
 30
0.0
 70
0
  0
VERTEX
  5
435
  8
P_Water
 10
27633.651719479883
 20
12526.57881096394
 30
0.0
 70
0
  0
VERTEX
  5
436
  8
P_Water
 10
21795.1538558978
 20
16924.34020766353
 30
0.0
 70
0
  0
VERTEX
  5
437
  8
P_Water
 10
21836.868645347335
 20
17309.52672669618
 30
0.0
 70
0
  0
VERTEX
  5
438
  8
P_Water
 10
21127.550973807978
 20
17547.418185731356
 30
0.0
 70
0
  0
VERTEX
  5
439
  8
P_Water
 10
21083.550398064832
 20
17567.809304196202
 30
0.0
 70
0
  0
VERTEX
  5
43A
  8
P_Water
 10
20491.81600020974
 20
17959.778065535316
 30
0.0
 70
0
  0
VERTEX
  5
43B
  8
P_Water
 10
20290.01941321584
 20
18097.986913603647
 30
0.0
 70
0
  0
VERTEX
  5
43C
  8
P_Water
 10
18736.33836117544
 20
19217.254607582334
 30
0.0
 70
0
  0
VERTEX
  5
43D
  8
P_Water
 10
18416.95524316534
 20
19397.7559868569
 30
0.0
 70
0
  0
VERTEX
  5
43E
  8
P_Water
 10
17859.363098634905
 20
19693.052685484035
 30
0.0
 70
0
  0
VERTEX
  5
43F
  8
P_Water
 10
15696.509165504283
 20
21224.684933749235
 30
0.0
 70
0
  0
VERTEX
  5
440
  8
P_Water
 10
14056.357549927292
 20
22302.41601168198
 30
0.0
 70
0
  0
VERTEX
  5
441
  8
P_Water
 10
11739.137852144422
 20
23843.869385181963
 30
0.0
 70
0
  0
VERTEX
  5
442
  8
P_Water
 10
10975.2043584144
 20
24352.149464232618
 30
0.0
 70
0
  0
VERTEX
  5
443
  8
P_Water
 10
10916.790519820865
 20
24382.359127347092
 30
0.0
 70
0
  0
VERTEX
  5
444
  8
P_Water
 10
10565.548603088333
 20
24593.072273405523
 30
0.0
 70
0
  0
VERTEX
  5
445
  8
P_Water
 10
8343.5490943829
 20
25923.059412129616
 30
0.0
 70
0
  0
VERTEX
  5
446
  8
P_Water
 10
7904.308553332467
 20
26191.17203818133
 30
0.0
 70
0
  0
VERTEX
  5
447
  8
P_Water
 10
6153.418395640039
 20
27199.42709560711
 30
0.0
 70
0
  0
VERTEX
  5
448
  8
P_Water
 10
3690.9517530104636
 20
28521.112551941405
 30
0.0
 70
0
  0
VERTEX
  5
449
  8
P_Water
 10
1240.6304646521005
 20
29670.604753683718
 30
0.0
 70
0
  0
VERTEX
  5
44A
  8
P_Water
 10
-1758.918657855609
 20
30895.628565667095
 30
0.0
 70
0
  0
VERTEX
  5
44B
  8
P_Water
 10
-4128.815195395202
 20
31723.394494711367
 30
0.0
 70
0
  0
VERTEX
  5
44C
  8
P_Water
 10
-5973.752187686471
 20
32161.4518307788
 30
0.0
 70
0
  0
VERTEX
  5
44D
  8
P_Water
 10
-10356.99959788538
 20
32161.492107040463
 30
0.0
 70
0
  0
VERTEX
  5
44E
  8
P_Water
 10
-12488.693129410061
 20
32161.519508559366
 30
0.0
 70
0
  0
VERTEX
  5
44F
  8
P_Water
 10
-12724.620776578575
 20
32161.522855608688
 30
0.0
 70
0
  0
VERTEX
  5
450
  8
P_Water
 10
-12493.245913811634
 20
32081.462750586536
 30
0.0
 70
0
  0
VERTEX
  5
451
  8
P_Water
 10
-10357.006947916176
 20
31530.85562784453
 30
0.0
 70
0
  0
VERTEX
  5
452
  8
P_Water
 10
-10217.42306294834
 20
31494.601841509517
 30
0.0
 70
0
  0
VERTEX
  5
453
  8
P_Water
 10
-3951.309945713836
 20
29579.982055450444
 30
0.0
 70
0
  0
VERTEX
  5
454
  8
P_Water
 10
-2006.9885956867968
 20
29044.499456567013
 30
0.0
 70
0
  0
VERTEX
  5
455
  8
P_Water
 10
192.22913493566938
 20
28057.377560926227
 30
0.0
 70
0
  0
VERTEX
  5
456
  8
P_Water
 10
2252.6253167260124
 20
27088.385833486933
 30
0.0
 70
0
  0
VERTEX
  5
457
  8
P_Water
 10
4253.096032134278
 20
25989.49314523078
 30
0.0
 70
0
  0
VERTEX
  5
458
  8
P_Water
 10
7062.26075576258
 20
24337.004561094487
 30
0.0
 70
0
  0
VERTEX
  5
459
  8
P_Water
 10
9094.6080637387
 20
22991.904690262807
 30
0.0
 70
0
  0
VERTEX
  5
45A
  8
P_Water
 10
10789.374895662913
 20
21751.78467889743
 30
0.0
 70
0
  0
VERTEX
  5
45B
  8
P_Water
 10
11739.173838895229
 20
21119.64239254015
 30
0.0
 70
0
  0
VERTEX
  5
45C
  8
P_Water
 10
16909.608446108457
 20
17688.562520046016
 30
0.0
 70
0
  0
VERTEX
  5
45D
  8
P_Water
 10
17483.894183157954
 20
17242.967057102414
 30
0.0
 70
0
  0
VERTEX
  5
45E
  8
P_Water
 10
17813.139435718575
 20
17089.654672230557
 30
0.0
 70
0
  0
VERTEX
  5
45F
  8
P_Water
 10
19347.099044094222
 20
15960.563812299162
 30
0.0
 70
0
  0
VERTEX
  5
460
  8
P_Water
 10
19529.171951081862
 20
15813.29078559732
 30
0.0
 70
0
  0
VERTEX
  5
461
  8
P_Water
 10
20157.323468628445
 20
15326.15760987856
 30
0.0
 70
0
  0
VERTEX
  5
462
  8
P_Water
 10
23806.38072571273
 20
12526.468044357924
 30
0.0
 70
0
  0
VERTEX
  5
463
  8
P_Water
 10
30597.781721405852
 20
7413.864169529383
 30
0.0
 70
0
  0
VERTEX
  5
464
  8
P_Water
 10
32500.48047594167
 20
5981.176076223774
 30
0.0
 70
0
  0
VERTEX
  5
465
  8
P_Water
 10
35981.94954187442
 20
3359.746656410267
 30
0.0
 70
0
  0
SEQEND
  5
42B
  8
P_Water
  0
POLYLINE
  5
466
  8
P_Water
 66
1
 10
0.0
 20
0.0
 30
0.0
 70
1
  0
VERTEX
  5
468
  8
P_Water
 10
7686.00225807164
 20
5980.615036207027
 30
0.0
 70
0
  0
VERTEX
  5
469
  8
P_Water
 10
7509.232090436532
 20
7031.200512414853
 30
0.0
 70
0
  0
VERTEX
  5
46A
  8
P_Water
 10
7307.436128421213
 20
7037.241023609269
 30
0.0
 70
0
  0
VERTEX
  5
46B
  8
P_Water
 10
7217.167591085351
 20
5980.611105104077
 30
0.0
 70
0
  0
VERTEX
  5
46C
  8
P_Water
 10
7209.582127233539
 20
5874.872529455987
 30
0.0
 70
0
  0
VERTEX
  5
46D
  8
P_Water
 10
7712.555871013774
 20
5809.167812333326
 30
0.0
 70
0
  0
VERTEX
  5
46E
  8
P_Water
 10
7686.00225807164
 20
5980.615036207027
 30
0.0
 70
0
  0
SEQEND
  5
467
  8
P_Water
  0
POLYLINE
  5
46F
  8
L_Road_Prefectural
 66
1
 10
0.0
 20
0.0
 30
0.0
 70
0
  0
VERTEX
  5
471
  8
L_Road_Prefectural
 10
12032.565745728236
 20
7413.418893076984
 30
0.0
 70
0
  0
VERTEX
  5
472
  8
L_Road_Prefectural
 10
13040.00151967609
 20
9191.723619148084
 30
0.0
 70
0
  0
SEQEND
  5
470
  8
L_Road_Prefectural
  0
POLYLINE
  5
473
  8
L_Road_Prefectural
 66
1
 10
0.0
 20
0.0
 30
0.0
 70
0
  0
VERTEX
  5
475
  8
L_Road_Prefectural
 10
14906.247834733773
 20
8120.020854837796
 30
0.0
 70
0
  0
VERTEX
  5
476
  8
L_Road_Prefectural
 10
14492.805832423977
 20
7413.455608650899
 30
0.0
 70
0
  0
SEQEND
  5
474
  8
L_Road_Prefectural
  0
POLYLINE
  5
477
  8
L_Road_Prefectural
 66
1
 10
0.0
 20
0.0
 30
0.0
 70
0
  0
VERTEX
  5
479
  8
L_Road_Prefectural
 10
11221.228063039778
 20
5980.652641882069
 30
0.0
 70
0
  0
VERTEX
  5
47A
  8
L_Road_Prefectural
 10
11739.361737509873
 20
6895.296961756493
 30
0.0
 70
0
  0
SEQEND
  5
478
  8
L_Road_Prefectural
  0
POLYLINE
  5
47B
  8
L_Road_Prefectural
 66
1
 10
0.0
 20
0.0
 30
0.0
 70
0
  0
VERTEX
  5
47D
  8
L_Road_Prefectural
 10
10813.851358205493
 20
5260.870174654466
 30
0.0
 70
0
  0
VERTEX
  5
47E
  8
L_Road_Prefectural
 10
11221.228063039778
 20
5980.652641882069
 30
0.0
 70
0
  0
SEQEND
  5
47C
  8
L_Road_Prefectural
  0
POLYLINE
  5
47F
  8
L_Road_Prefectural
 66
1
 10
0.0
 20
0.0
 30
0.0
 70
0
  0
VERTEX
  5
481
  8
L_Road_Prefectural
 10
8206.470966024233
 20
884.764407645608
 30
0.0
 70
0
  0
VERTEX
  5
482
  8
L_Road_Prefectural
 10
10637.093269436473
 20
4981.416002261492
 30
0.0
 70
0
  0
SEQEND
  5
480
  8
L_Road_Prefectural
  0
POLYLINE
  5
483
  8
L_Road_Prefectural
 66
1
 10
0.0
 20
0.0
 30
0.0
 70
0
  0
VERTEX
  5
485
  8
L_Road_Prefectural
 10
11739.418195826014
 20
2621.189593713299
 30
0.0
 70
0
  0
VERTEX
  5
486
  8
L_Road_Prefectural
 10
10072.729237827476
 20
-217.16964605002227
 30
0.0
 70
0
  0
SEQEND
  5
484
  8
L_Road_Prefectural
  0
POLYLINE
  5
487
  8
L_Road_Prefectural
 66
1
 10
0.0
 20
0.0
 30
0.0
 70
0
  0
VERTEX
  5
489
  8
L_Road_Prefectural
 10
10637.093269436473
 20
4981.416002261492
 30
0.0
 70
0
  0
VERTEX
  5
48A
  8
L_Road_Prefectural
 10
10813.851358205493
 20
5260.870174654466
 30
0.0
 70
0
  0
SEQEND
  5
488
  8
L_Road_Prefectural
  0
POLYLINE
  5
48B
  8
L_Road_Prefectural
 66
1
 10
0.0
 20
0.0
 30
0.0
 70
0
  0
VERTEX
  5
48D
  8
L_Road_Prefectural
 10
7209.623705513352
 20
749.5607486019481
 30
0.0
 70
0
  0
VERTEX
  5
48E
  8
L_Road_Prefectural
 10
7975.849551684033
 20
430.08402508356755
 30
0.0
 70
0
  0
VERTEX
  5
48F
  8
L_Road_Prefectural
 10
8206.470966024233
 20
884.764407645608
 30
0.0
 70
0
  0
SEQEND
  5
48C
  8
L_Road_Prefectural
  0
POLYLINE
  5
490
  8
L_Road_Prefectural
 66
1
 10
0.0
 20
0.0
 30
0.0
 70
0
  0
VERTEX
  5
492
  8
L_Road_Prefectural
 10
10072.729237827476
 20
-217.16964605002227
 30
0.0
 70
0
  0
VERTEX
  5
493
  8
L_Road_Prefectural
 10
9635.004083186615
 20
-1014.7508255350696
 30
0.0
 70
0
  0
VERTEX
  5
494
  8
L_Road_Prefectural
 10
9716.178782993487
 20
-1053.2692711005723
 30
0.0
 70
0
  0
VERTEX
  5
495
  8
L_Road_Prefectural
 10
9969.565484527004
 20
-1192.2381760964945
 30
0.0
 70
0
  0
SEQEND
  5
491
  8
L_Road_Prefectural
  0
POLYLINE
  5
496
  8
L_Road_Prefectural
 66
1
 10
0.0
 20
0.0
 30
0.0
 70
0
  0
VERTEX
  5
498
  8
L_Road_Prefectural
 10
9613.012498815293
 20
-1839.5182386930983
 30
0.0
 70
0
  0
VERTEX
  5
499
  8
L_Road_Prefectural
 10
9416.523891536734
 20
-1730.7597921669262
 30
0.0
 70
0
  0
VERTEX
  5
49A
  8
L_Road_Prefectural
 10
9333.07315531184
 20
-1685.4437802516393
 30
0.0
 70
0
  0
VERTEX
  5
49B
  8
L_Road_Prefectural
 10
9257.211198035562
 20
-1868.978000317776
 30
0.0
 70
0
  0
SEQEND
  5
497
  8
L_Road_Prefectural
  0
POLYLINE
  5
49C
  8
L_Road_Prefectural
 66
1
 10
0.0
 20
0.0
 30
0.0
 70
0
  0
VERTEX
  5
49E
  8
L_Road_Prefectural
 10
7202.052585853992
 20
-1131.84242650082
 30
0.0
 70
0
  0
VERTEX
  5
49F
  8
L_Road_Prefectural
 10
7339.362223704066
 20
-662.0566153339981
 30
0.0
 70
0
  0
VERTEX
  5
4A0
  8
L_Road_Prefectural
 10
6686.931552943686
 20
-376.56572285513164
 30
0.0
 70
0
  0
SEQEND
  5
49D
  8
L_Road_Prefectural
  0
POLYLINE
  5
4A1
  8
L_Road_Prefectural
 66
1
 10
0.0
 20
0.0
 30
0.0
 70
0
  0
VERTEX
  5
4A3
  8
L_Road_Prefectural
 10
14492.805832423977
 20
7413.455608650899
 30
0.0
 70
0
  0
VERTEX
  5
4A4
  8
L_Road_Prefectural
 10
13653.782042386612
 20
5980.686685453125
 30
0.0
 70
0
  0
SEQEND
  5
4A2
  8
L_Road_Prefectural
  0
POLYLINE
  5
4A5
  8
L_Road_Prefectural
 66
1
 10
0.0
 20
0.0
 30
0.0
 70
0
  0
VERTEX
  5
4A7
  8
L_Road_Prefectural
 10
11739.361737509873
 20
6895.296961756493
 30
0.0
 70
0
  0
VERTEX
  5
4A8
  8
L_Road_Prefectural
 10
12032.565745728236
 20
7413.418893076984
 30
0.0
 70
0
  0
SEQEND
  5
4A6
  8
L_Road_Prefectural
  0
POLYLINE
  5
4A9
  8
L_Road_Prefectural
 66
1
 10
0.0
 20
0.0
 30
0.0
 70
0
  0
VERTEX
  5
4AB
  8
L_Road_Prefectural
 10
12493.10409725838
 20
3900.6396943491745
 30
0.0
 70
0
  0
VERTEX
  5
4AC
  8
L_Road_Prefectural
 10
11739.418195826014
 20
2621.189593713299
 30
0.0
 70
0
  0
SEQEND
  5
4AA
  8
L_Road_Prefectural
  0
POLYLINE
  5
4AD
  8
L_Road_General
 66
1
 10
0.0
 20
0.0
 30
0.0
 70
0
  0
VERTEX
  5
4AF
  8
L_Road_General
 10
8655.459806121573
 20
13613.023544077663
 30
0.0
 70
0
  0
VERTEX
  5
4B0
  8
L_Road_General
 10
9181.189358667181
 20
13420.43529925796
 30
0.0
 70
0
  0
VERTEX
  5
4B1
  8
L_Road_General
 10
9475.537327245018
 20
13311.679676767037
 30
0.0
 70
0
  0
SEQEND
  5
4AE
  8
L_Road_General
  0
POLYLINE
  5
4B2
  8
L_Road_General
 66
1
 10
0.0
 20
0.0
 30
0.0
 70
0
  0
VERTEX
  5
4B4
  8
L_Road_General
 10
9043.132329039756
 20
12156.113039010212
 30
0.0
 70
0
  0
VERTEX
  5
4B5
  8
L_Road_General
 10
8213.950062127242
 20
12490.689471047539
 30
0.0
 70
0
  0
SEQEND
  5
4B3
  8
L_Road_General
  0
POLYLINE
  5
4B6
  8
L_Road_General
 66
1
 10
0.0
 20
0.0
 30
0.0
 70
0
  0
VERTEX
  5
4B8
  8
L_Road_General
 10
11739.306401324366
 20
11084.416000592304
 30
0.0
 70
0
  0
VERTEX
  5
4B9
  8
L_Road_General
 10
11422.957098461065
 20
11202.234108471064
 30
0.0
 70
0
  0
SEQEND
  5
4B7
  8
L_Road_General
  0
POLYLINE
  5
4BA
  8
L_Road_General
 66
1
 10
0.0
 20
0.0
 30
0.0
 70
0
  0
VERTEX
  5
4BC
  8
L_Road_General
 10
9728.160765214843
 20
13218.784329140912
 30
0.0
 70
0
  0
VERTEX
  5
4BD
  8
L_Road_General
 10
9956.508129304291
 20
13134.196730754553
 30
0.0
 70
0
  0
VERTEX
  5
4BE
  8
L_Road_General
 10
10371.478221560628
 20
12992.966156828896
 30
0.0
 70
0
  0
VERTEX
  5
4BF
  8
L_Road_General
 10
10882.794612540834
 20
12800.378617150567
 30
0.0
 70
0
  0
VERTEX
  5
4C0
  8
L_Road_General
 10
11614.113973182448
 20
12526.225071817502
 30
0.0
 70
0
  0
VERTEX
  5
4C1
  8
L_Road_General
 10
11739.287864419748
 20
12487.707968838904
 30
0.0
 70
0
  0
SEQEND
  5
4BB
  8
L_Road_General
  0
POLYLINE
  5
4C2
  8
L_Road_General
 66
1
 10
0.0
 20
0.0
 30
0.0
 70
0
  0
VERTEX
  5
4C4
  8
L_Road_General
 10
11422.957098461065
 20
11202.234108471064
 30
0.0
 70
0
  0
VERTEX
  5
4C5
  8
L_Road_General
 10
9279.066257594268
 20
12063.217274304083
 30
0.0
 70
0
  0
SEQEND
  5
4C3
  8
L_Road_General
  0
POLYLINE
  5
4C6
  8
L_Road_General
 66
1
 10
0.0
 20
0.0
 30
0.0
 70
0
  0
VERTEX
  5
4C8
  8
L_Road_General
 10
-3261.8129962614744
 20
7413.343422202584
 30
0.0
 70
0
  0
VERTEX
  5
4C9
  8
L_Road_General
 10
-2312.002211423509
 20
9284.52945241248
 30
0.0
 70
0
  0
VERTEX
  5
4CA
  8
L_Road_General
 10
-2149.65475563678
 20
9607.030247349823
 30
0.0
 70
0
  0
VERTEX
  5
4CB
  8
L_Road_General
 10
-1985.0324336121084
 20
9525.460484434485
 30
0.0
 70
0
  0
VERTEX
  5
4CC
  8
L_Road_General
 10
-769.7064967083288
 20
11933.26272741665
 30
0.0
 70
0
  0
SEQEND
  5
4C7
  8
L_Road_General
  0
POLYLINE
  5
4CD
  8
L_Road_General
 66
1
 10
0.0
 20
0.0
 30
0.0
 70
0
  0
VERTEX
  5
4CF
  8
L_Road_General
 10
337.13060676985333
 20
11367.565018311423
 30
0.0
 70
0
  0
VERTEX
  5
4D0
  8
L_Road_General
 10
128.5080936937304
 20
10934.039581077694
 30
0.0
 70
0
  0
VERTEX
  5
4D1
  8
L_Road_General
 10
-74.80422119755352
 20
10545.830256807327
 30
0.0
 70
0
  0
VERTEX
  5
4D2
  8
L_Road_General
 10
-1651.9981758995668
 20
7413.33897176776
 30
0.0
 70
0
  0
SEQEND
  5
4CE
  8
L_Road_General
  0
POLYLINE
  5
4D3
  8
L_Road_General
 66
1
 10
0.0
 20
0.0
 30
0.0
 70
0
  0
VERTEX
  5
4D5
  8
L_Road_General
 10
575.3393645130222
 20
11819.21679666585
 30
0.0
 70
0
  0
VERTEX
  5
4D6
  8
L_Road_General
 10
337.13060676985333
 20
11367.565018311423
 30
0.0
 70
0
  0
SEQEND
  5
4D4
  8
L_Road_General
  0
POLYLINE
  5
4D7
  8
L_Road_General
 66
1
 10
0.0
 20
0.0
 30
0.0
 70
0
  0
VERTEX
  5
4D9
  8
L_Road_General
 10
-566.3941836601296
 20
12339.597764850929
 30
0.0
 70
0
  0
VERTEX
  5
4DA
  8
L_Road_General
 10
-473.0829981202212
 20
12526.149306791944
 30
0.0
 70
0
  0
VERTEX
  5
4DB
  8
L_Road_General
 10
742.2347411244612
 20
14930.924489541434
 30
0.0
 70
0
  0
SEQEND
  5
4D8
  8
L_Road_General
  0
POLYLINE
  5
4DC
  8
L_Road_General
 66
1
 10
0.0
 20
0.0
 30
0.0
 70
0
  0
VERTEX
  5
4DE
  8
L_Road_General
 10
1891.5519379712098
 20
14428.673153302007
 30
0.0
 70
0
  0
VERTEX
  5
4DF
  8
L_Road_General
 10
1751.9654844224249
 20
14157.53163554781
 30
0.0
 70
0
  0
VERTEX
  5
4E0
  8
L_Road_General
 10
1700.3791796980731
 20
14049.528180516134
 30
0.0
 70
0
  0
VERTEX
  5
4E1
  8
L_Road_General
 10
1333.9642646683499
 20
13326.735539697549
 30
0.0
 70
0
  0
VERTEX
  5
4E2
  8
L_Road_General
 10
1147.3427848630552
 20
12950.611304098205
 30
0.0
 70
0
  0
VERTEX
  5
4E3
  8
L_Road_General
 10
931.8933896548547
 20
12526.149669417868
 30
0.0
 70
0
  0
VERTEX
  5
4E4
  8
L_Road_General
 10
575.3393645130222
 20
11819.21679666585
 30
0.0
 70
0
  0
SEQEND
  5
4DD
  8
L_Road_General
  0
POLYLINE
  5
4E5
  8
L_Road_General
 66
1
 10
0.0
 20
0.0
 30
0.0
 70
0
  0
VERTEX
  5
4E7
  8
L_Road_General
 10
11893.669103711733
 20
12433.330610610303
 30
0.0
 70
0
  0
VERTEX
  5
4E8
  8
L_Road_General
 10
14000.387749126423
 20
11641.838390587753
 30
0.0
 70
0
  0
VERTEX
  5
4E9
  8
L_Road_General
 10
14336.461258071251
 20
11542.148065057077
 30
0.0
 70
0
  0
SEQEND
  5
4E6
  8
L_Road_General
  0
POLYLINE
  5
4EA
  8
L_Road_General
 66
1
 10
0.0
 20
0.0
 30
0.0
 70
0
  0
VERTEX
  5
4EC
  8
L_Road_General
 10
13521.718551731155
 20
10022.530019565258
 30
0.0
 70
0
  0
VERTEX
  5
4ED
  8
L_Road_General
 10
13405.641821681871
 20
10456.054084329613
 30
0.0
 70
0
  0
VERTEX
  5
4EE
  8
L_Road_General
 10
11739.306401324366
 20
11084.416000592304
 30
0.0
 70
0
  0
SEQEND
  5
4EB
  8
L_Road_General
  0
POLYLINE
  5
4EF
  8
L_Road_General
 66
1
 10
0.0
 20
0.0
 30
0.0
 70
0
  0
VERTEX
  5
4F1
  8
L_Road_General
 10
11739.287864419748
 20
12487.707968838904
 30
0.0
 70
0
  0
VERTEX
  5
4F2
  8
L_Road_General
 10
11893.669103711733
 20
12433.330610610303
 30
0.0
 70
0
  0
SEQEND
  5
4F0
  8
L_Road_General
  0
POLYLINE
  5
4F3
  8
L_Road_General
 66
1
 10
0.0
 20
0.0
 30
0.0
 70
0
  0
VERTEX
  5
4F5
  8
L_Road_General
 10
1719.3657626774432
 20
3220.048885060639
 30
0.0
 70
0
  0
VERTEX
  5
4F6
  8
L_Road_General
 10
2016.7507672987288
 20
3096.939288493542
 30
0.0
 70
0
  0
VERTEX
  5
4F7
  8
L_Road_General
 10
2664.625545105772
 20
2822.775225734057
 30
0.0
 70
0
  0
VERTEX
  5
4F8
  8
L_Road_General
 10
3384.571155633815
 20
2522.1770951321746
 30
0.0
 70
0
  0
SEQEND
  5
4F4
  8
L_Road_General
  0
POLYLINE
  5
4F9
  8
L_Road_General
 66
1
 10
0.0
 20
0.0
 30
0.0
 70
0
  0
VERTEX
  5
4FB
  8
L_Road_General
 10
2809.5297187198958
 20
1266.902228278375
 30
0.0
 70
0
  0
VERTEX
  5
4FC
  8
L_Road_General
 10
1211.8408969070542
 20
2034.261776081528
 30
0.0
 70
0
  0
SEQEND
  5
4FA
  8
L_Road_General
  0
POLYLINE
  5
4FD
  8
L_Road_General
 66
1
 10
0.0
 20
0.0
 30
0.0
 70
0
  0
VERTEX
  5
4FF
  8
L_Road_General
 10
-833.4382571921884
 20
4376.376537329587
 30
0.0
 70
0
  0
VERTEX
  5
500
  8
L_Road_General
 10
-668.8148358867663
 20
4306.890966327859
 30
0.0
 70
0
  0
VERTEX
  5
501
  8
L_Road_General
 10
-477.63922212973273
 20
4219.278768410035
 30
0.0
 70
0
  0
VERTEX
  5
502
  8
L_Road_General
 10
-173.42715579495996
 20
4078.0419331150897
 30
0.0
 70
0
  0
VERTEX
  5
503
  8
L_Road_General
 10
462.30809737861983
 20
3783.4840913593707
 30
0.0
 70
0
  0
SEQEND
  5
4FE
  8
L_Road_General
  0
POLYLINE
  5
504
  8
L_Road_General
 66
1
 10
0.0
 20
0.0
 30
0.0
 70
0
  0
VERTEX
  5
506
  8
L_Road_General
 10
-30.804052710914416
 20
2760.0831794423407
 30
0.0
 70
0
  0
VERTEX
  5
507
  8
L_Road_General
 10
-1349.3106891021669
 20
3295.575980853246
 30
0.0
 70
0
  0
SEQEND
  5
505
  8
L_Road_General
  0
POLYLINE
  5
508
  8
L_Road_General
 66
1
 10
0.0
 20
0.0
 30
0.0
 70
0
  0
VERTEX
  5
50A
  8
L_Road_General
 10
3384.571155633815
 20
2522.1770951321746
 30
0.0
 70
0
  0
VERTEX
  5
50B
  8
L_Road_General
 10
5090.746010302857
 20
1733.6746842914763
 30
0.0
 70
0
  0
SEQEND
  5
509
  8
L_Road_General
  0
POLYLINE
  5
50C
  8
L_Road_General
 66
1
 10
0.0
 20
0.0
 30
0.0
 70
0
  0
VERTEX
  5
50E
  8
L_Road_General
 10
4464.87781990759
 20
475.3762344767562
 30
0.0
 70
0
  0
VERTEX
  5
50F
  8
L_Road_General
 10
2809.5297187198958
 20
1266.902228278375
 30
0.0
 70
0
  0
SEQEND
  5
50D
  8
L_Road_General
  0
POLYLINE
  5
510
  8
L_Road_General
 66
1
 10
0.0
 20
0.0
 30
0.0
 70
0
  0
VERTEX
  5
512
  8
L_Road_General
 10
-1133.1046975820166
 20
-487.61638457067306
 30
0.0
 70
0
  0
VERTEX
  5
513
  8
L_Road_General
 10
165.68246406600446
 20
2338.6381003143356
 30
0.0
 70
0
  0
SEQEND
  5
511
  8
L_Road_General
  0
POLYLINE
  5
514
  8
L_Road_General
 66
1
 10
0.0
 20
0.0
 30
0.0
 70
0
  0
VERTEX
  5
516
  8
L_Road_General
 10
823.4195211444819
 20
2025.1979906645292
 30
0.0
 70
0
  0
VERTEX
  5
517
  8
L_Road_General
 10
-450.33095289372653
 20
-798.0373335113877
 30
0.0
 70
0
  0
SEQEND
  5
515
  8
L_Road_General
  0
POLYLINE
  5
518
  8
L_Road_General
 66
1
 10
0.0
 20
0.0
 30
0.0
 70
0
  0
VERTEX
  5
51A
  8
L_Road_General
 10
462.30809737861983
 20
3783.4840913593707
 30
0.0
 70
0
  0
VERTEX
  5
51B
  8
L_Road_General
 10
1140.5273041920439
 20
3479.108057666335
 30
0.0
 70
0
  0
VERTEX
  5
51C
  8
L_Road_General
 10
1343.8414278039281
 20
3389.2303550281677
 30
0.0
 70
0
  0
VERTEX
  5
51D
  8
L_Road_General
 10
1719.3657626774432
 20
3220.048885060639
 30
0.0
 70
0
  0
SEQEND
  5
519
  8
L_Road_General
  0
POLYLINE
  5
51E
  8
L_Road_General
 66
1
 10
0.0
 20
0.0
 30
0.0
 70
0
  0
VERTEX
  5
520
  8
L_Road_General
 10
1211.8408969070542
 20
2034.261776081528
 30
0.0
 70
0
  0
VERTEX
  5
521
  8
L_Road_General
 10
823.4195211444819
 20
2025.1979906645292
 30
0.0
 70
0
  0
SEQEND
  5
51F
  8
L_Road_General
  0
POLYLINE
  5
522
  8
L_Road_General
 66
1
 10
0.0
 20
0.0
 30
0.0
 70
0
  0
VERTEX
  5
524
  8
L_Road_General
 10
165.68246406600446
 20
2338.6381003143356
 30
0.0
 70
0
  0
VERTEX
  5
525
  8
L_Road_General
 10
-30.804052710914416
 20
2760.0831794423407
 30
0.0
 70
0
  0
SEQEND
  5
523
  8
L_Road_General
  0
POLYLINE
  5
526
  8
L_Road_General
 66
1
 10
0.0
 20
0.0
 30
0.0
 70
0
  0
VERTEX
  5
528
  8
L_Road_General
 10
5517.859295804516
 20
1516.9122396090752
 30
0.0
 70
0
  0
VERTEX
  5
529
  8
L_Road_General
 10
6580.711840217016
 20
1035.0514602281273
 30
0.0
 70
0
  0
VERTEX
  5
52A
  8
L_Road_General
 10
7209.623705513352
 20
749.5607486019481
 30
0.0
 70
0
  0
SEQEND
  5
527
  8
L_Road_General
  0
POLYLINE
  5
52B
  8
L_Road_General
 66
1
 10
0.0
 20
0.0
 30
0.0
 70
0
  0
VERTEX
  5
52D
  8
L_Road_General
 10
6686.931552943686
 20
-376.56572285513164
 30
0.0
 70
0
  0
VERTEX
  5
52E
  8
L_Road_General
 10
5009.5796501544155
 20
373.41637306607396
 30
0.0
 70
0
  0
SEQEND
  5
52C
  8
L_Road_General
  0
POLYLINE
  5
52F
  8
L_Road_General
 66
1
 10
0.0
 20
0.0
 30
0.0
 70
0
  0
VERTEX
  5
531
  8
L_Road_General
 10
2925.6136657324114
 20
-2564.6360826843998
 30
0.0
 70
0
  0
VERTEX
  5
532
  8
L_Road_General
 10
4474.741007781249
 20
294.8644187841767
 30
0.0
 70
0
  0
SEQEND
  5
530
  8
L_Road_General
  0
POLYLINE
  5
533
  8
L_Road_General
 66
1
 10
0.0
 20
0.0
 30
0.0
 70
0
  0
VERTEX
  5
535
  8
L_Road_General
 10
4876.819741188893
 20
90.18567295459454
 30
0.0
 70
0
  0
VERTEX
  5
536
  8
L_Road_General
 10
3317.8309759229337
 20
-2757.2317008270893
 30
0.0
 70
0
  0
SEQEND
  5
534
  8
L_Road_General
  0
POLYLINE
  5
537
  8
L_Road_General
 66
1
 10
0.0
 20
0.0
 30
0.0
 70
0
  0
VERTEX
  5
539
  8
L_Road_General
 10
5090.746010302857
 20
1733.6746842914763
 30
0.0
 70
0
  0
VERTEX
  5
53A
  8
L_Road_General
 10
5517.859295804516
 20
1516.9122396090752
 30
0.0
 70
0
  0
SEQEND
  5
538
  8
L_Road_General
  0
POLYLINE
  5
53B
  8
L_Road_General
 66
1
 10
0.0
 20
0.0
 30
0.0
 70
0
  0
VERTEX
  5
53D
  8
L_Road_General
 10
5009.5796501544155
 20
373.41637306607396
 30
0.0
 70
0
  0
VERTEX
  5
53E
  8
L_Road_General
 10
4957.992894836205
 20
273.7191472335336
 30
0.0
 70
0
  0
VERTEX
  5
53F
  8
L_Road_General
 10
4876.819741188893
 20
90.18567295459454
 30
0.0
 70
0
  0
SEQEND
  5
53C
  8
L_Road_General
  0
POLYLINE
  5
540
  8
L_Road_General
 66
1
 10
0.0
 20
0.0
 30
0.0
 70
0
  0
VERTEX
  5
542
  8
L_Road_General
 10
4474.741007781249
 20
294.8644187841767
 30
0.0
 70
0
  0
VERTEX
  5
543
  8
L_Road_General
 10
4464.87781990759
 20
475.3762344767562
 30
0.0
 70
0
  0
SEQEND
  5
541
  8
L_Road_General
  0
POLYLINE
  5
544
  8
L_Road_General
 66
1
 10
0.0
 20
0.0
 30
0.0
 70
0
  0
VERTEX
  5
546
  8
L_Road_General
 10
11969.730155096782
 20
-2296.4351325422276
 30
0.0
 70
0
  0
VERTEX
  5
547
  8
L_Road_General
 10
14778.890827114123
 20
2534.3779793743643
 30
0.0
 70
0
  0
SEQEND
  5
545
  8
L_Road_General
  0
POLYLINE
  5
548
  8
L_Road_General
 66
1
 10
0.0
 20
0.0
 30
0.0
 70
0
  0
VERTEX
  5
54A
  8
L_Road_General
 10
15105.107137325796
 20
2344.808676314456
 30
0.0
 70
0
  0
VERTEX
  5
54B
  8
L_Road_General
 10
12316.43102792579
 20
-2495.0695909392944
 30
0.0
 70
0
  0
SEQEND
  5
549
  8
L_Road_General
  0
POLYLINE
  5
54C
  8
L_Road_Misc
 66
1
 10
0.0
 20
0.0
 30
0.0
 70
0
  0
VERTEX
  5
54E
  8
L_Road_Misc
 10
8913.41045107356
 20
11825.303471252208
 30
0.0
 70
0
  0
VERTEX
  5
54F
  8
L_Road_Misc
 10
9043.132329039756
 20
12156.113039010212
 30
0.0
 70
0
  0
SEQEND
  5
54D
  8
L_Road_Misc
  0
POLYLINE
  5
550
  8
L_Road_Misc
 66
1
 10
0.0
 20
0.0
 30
0.0
 70
0
  0
VERTEX
  5
552
  8
L_Road_Misc
 10
9279.066257594268
 20
12063.217274304083
 30
0.0
 70
0
  0
VERTEX
  5
553
  8
L_Road_Misc
 10
9151.620187878998
 20
11746.757795121937
 30
0.0
 70
0
  0
SEQEND
  5
551
  8
L_Road_Misc
  0
POLYLINE
  5
554
  8
L_Road_Misc
 66
1
 10
0.0
 20
0.0
 30
0.0
 70
0
  0
VERTEX
  5
556
  8
L_Road_Misc
 10
7825.536008272681
 20
12177.249038992766
 30
0.0
 70
0
  0
VERTEX
  5
557
  8
L_Road_Misc
 10
7958.292583165081
 20
12526.18481425008
 30
0.0
 70
0
  0
VERTEX
  5
558
  8
L_Road_Misc
 10
7980.292237987472
 20
12583.585494853114
 30
0.0
 70
0
  0
SEQEND
  5
555
  8
L_Road_Misc
  0
POLYLINE
  5
559
  8
L_Road_Misc
 66
1
 10
0.0
 20
0.0
 30
0.0
 70
0
  0
VERTEX
  5
55B
  8
L_Road_Misc
 10
8213.950062127242
 20
12490.689471047539
 30
0.0
 70
0
  0
VERTEX
  5
55C
  8
L_Road_Misc
 10
8061.469673297999
 20
12098.7030813866
 30
0.0
 70
0
  0
SEQEND
  5
55A
  8
L_Road_Misc
  0
POLYLINE
  5
55D
  8
L_Aisle_Misc
 66
1
 10
0.0
 20
0.0
 30
0.0
 70
0
  0
VERTEX
  5
55F
  8
L_Aisle_Misc
 10
195.26746345282197
 20
10419.699974250447
 30
0.0
 70
0
  0
VERTEX
  5
560
  8
L_Aisle_Misc
 10
-74.80422119755352
 20
10545.830256807327
 30
0.0
 70
0
  0
VERTEX
  5
561
  8
L_Aisle_Misc
 10
128.5080936937304
 20
10934.039581077694
 30
0.0
 70
0
  0
VERTEX
  5
562
  8
L_Aisle_Misc
 10
401.6142050339976
 20
10798.846164145167
 30
0.0
 70
0
  0
VERTEX
  5
563
  8
L_Aisle_Misc
 10
211.9572891726349
 20
10410.636722115198
 30
0.0
 70
0
  0
VERTEX
  5
564
  8
L_Aisle_Misc
 10
195.26746345282197
 20
10419.699974250447
 30
0.0
 70
0
  0
SEQEND
  5
55E
  8
L_Aisle_Misc
  0
POLYLINE
  5
565
  8
L_Aisle_Misc
 66
1
 10
0.0
 20
0.0
 30
0.0
 70
0
  0
VERTEX
  5
567
  8
L_Aisle_Misc
 10
7226.977900430072
 20
12363.795599695612
 30
0.0
 70
0
  0
VERTEX
  5
568
  8
L_Aisle_Misc
 10
7795.949719632028
 20
12159.122302460397
 30
0.0
 70
0
  0
VERTEX
  5
569
  8
L_Aisle_Misc
 10
7698.088652474005
 20
11951.422216342355
 30
0.0
 70
0
  0
VERTEX
  5
56A
  8
L_Aisle_Misc
 10
7096.495959902844
 20
12131.92672676184
 30
0.0
 70
0
  0
VERTEX
  5
56B
  8
L_Aisle_Misc
 10
7226.977900430072
 20
12363.795599695612
 30
0.0
 70
0
  0
SEQEND
  5
566
  8
L_Aisle_Misc
  0
POLYLINE
  5
56C
  8
L_Aisle_Misc
 66
1
 10
0.0
 20
0.0
 30
0.0
 70
0
  0
VERTEX
  5
56E
  8
L_Aisle_Misc
 10
8019.75350052305
 20
11178.028219521195
 30
0.0
 70
0
  0
VERTEX
  5
56F
  8
L_Aisle_Misc
 10
8014.442834212496
 20
11208.238998484001
 30
0.0
 70
0
  0
VERTEX
  5
570
  8
L_Aisle_Misc
 10
8117.6143849660775
 20
11406.87609475276
 30
0.0
 70
0
  0
VERTEX
  5
571
  8
L_Aisle_Misc
 10
8373.273017302949
 20
11283.769369452211
 30
0.0
 70
0
  0
VERTEX
  5
572
  8
L_Aisle_Misc
 10
8255.687364255515
 20
11108.545474962306
 30
0.0
 70
0
  0
SEQEND
  5
56D
  8
L_Aisle_Misc
  0
POLYLINE
  5
573
  8
L_Aisle_Misc
 66
1
 10
0.0
 20
0.0
 30
0.0
 70
0
  0
VERTEX
  5
575
  8
L_Aisle_Misc
 10
7364.303871536991
 20
10609.303545637258
 30
0.0
 70
0
  0
VERTEX
  5
576
  8
L_Aisle_Misc
 10
7735.2714885451105
 20
10789.816485604746
 30
0.0
 70
0
  0
VERTEX
  5
577
  8
L_Aisle_Misc
 10
7906.719846868083
 20
10967.306662821444
 30
0.0
 70
0
  0
VERTEX
  5
578
  8
L_Aisle_Misc
 10
8019.75350052305
 20
11178.028219521195
 30
0.0
 70
0
  0
SEQEND
  5
574
  8
L_Aisle_Misc
  0
POLYLINE
  5
579
  8
L_Aisle_Misc
 66
1
 10
0.0
 20
0.0
 30
0.0
 70
0
  0
VERTEX
  5
57B
  8
L_Aisle_Misc
 10
8255.687364255515
 20
11108.545474962306
 30
0.0
 70
0
  0
VERTEX
  5
57C
  8
L_Aisle_Misc
 10
8172.23999700104
 20
10925.013896096007
 30
0.0
 70
0
  0
VERTEX
  5
57D
  8
L_Aisle_Misc
 10
8034.172241045396
 20
10645.562363699073
 30
0.0
 70
0
  0
SEQEND
  5
57A
  8
L_Aisle_Misc
  0
POLYLINE
  5
57E
  8
L_Aisle_Misc
 66
1
 10
0.0
 20
0.0
 30
0.0
 70
0
  0
VERTEX
  5
580
  8
L_Aisle_Misc
 10
7754.240102354955
 20
10455.98680458074
 30
0.0
 70
0
  0
VERTEX
  5
581
  8
L_Aisle_Misc
 10
7651.067143816785
 20
10398.585290525816
 30
0.0
 70
0
  0
VERTEX
  5
582
  8
L_Aisle_Misc
 10
7590.377415389817
 20
10335.141975939856
 30
0.0
 70
0
  0
SEQEND
  5
57F
  8
L_Aisle_Misc
  0
POLYLINE
  5
583
  8
L_Aisle_Misc
 66
1
 10
0.0
 20
0.0
 30
0.0
 70
0
  0
VERTEX
  5
585
  8
L_Aisle_Misc
 10
8034.172241045396
 20
10645.562363699073
 30
0.0
 70
0
  0
VERTEX
  5
586
  8
L_Aisle_Misc
 10
8309.555422904452
 20
10521.700422785485
 30
0.0
 70
0
  0
SEQEND
  5
584
  8
L_Aisle_Misc
  0
POLYLINE
  5
587
  8
L_Aisle_Misc
 66
1
 10
0.0
 20
0.0
 30
0.0
 70
0
  0
VERTEX
  5
589
  8
L_Aisle_Misc
 10
8289.833948002437
 20
10215.060066358423
 30
0.0
 70
0
  0
VERTEX
  5
58A
  8
L_Aisle_Misc
 10
8014.450326504329
 20
10377.44089576373
 30
0.0
 70
0
  0
VERTEX
  5
58B
  8
L_Aisle_Misc
 10
7754.240102354955
 20
10455.98680458074
 30
0.0
 70
0
  0
SEQEND
  5
588
  8
L_Aisle_Misc
  0
POLYLINE
  5
58C
  8
L_Aisle_Misc
 66
1
 10
0.0
 20
0.0
 30
0.0
 70
0
  0
VERTEX
  5
58E
  8
L_Aisle_Misc
 10
7590.377415389817
 20
10335.141975939856
 30
0.0
 70
0
  0
VERTEX
  5
58F
  8
L_Aisle_Misc
 10
7555.481323221018
 20
10239.22220694411
 30
0.0
 70
0
  0
VERTEX
  5
590
  8
L_Aisle_Misc
 10
7538.79229027039
 20
10145.568398341002
 30
0.0
 70
0
  0
VERTEX
  5
591
  8
L_Aisle_Misc
 10
7160.233300598331
 20
10557.943437905496
 30
0.0
 70
0
  0
VERTEX
  5
592
  8
L_Aisle_Misc
 10
7364.303871536991
 20
10609.303545637258
 30
0.0
 70
0
  0
SEQEND
  5
58D
  8
L_Aisle_Misc
  0
POLYLINE
  5
593
  8
L_Aisle_Misc
 66
1
 10
0.0
 20
0.0
 30
0.0
 70
0
  0
VERTEX
  5
595
  8
L_Aisle_Misc
 10
8309.555422904452
 20
10521.700422785485
 30
0.0
 70
0
  0
VERTEX
  5
596
  8
L_Aisle_Misc
 10
8412.728610145014
 20
10548.8911572403
 30
0.0
 70
0
  0
VERTEX
  5
597
  8
L_Aisle_Misc
 10
8657.767851868854
 20
10310.983048640483
 30
0.0
 70
0
  0
VERTEX
  5
598
  8
L_Aisle_Misc
 10
8522.734066369212
 20
10094.218823260146
 30
0.0
 70
0
  0
SEQEND
  5
594
  8
L_Aisle_Misc
  0
POLYLINE
  5
599
  8
L_Aisle_Misc
 66
1
 10
0.0
 20
0.0
 30
0.0
 70
0
  0
VERTEX
  5
59B
  8
L_Aisle_Misc
 10
8522.734066369212
 20
10094.218823260146
 30
0.0
 70
0
  0
VERTEX
  5
59C
  8
L_Aisle_Misc
 10
8512.8731314857
 20
9965.067277386954
 30
0.0
 70
0
  0
VERTEX
  5
59D
  8
L_Aisle_Misc
 10
8204.110562460453
 20
10037.570453509741
 30
0.0
 70
0
  0
VERTEX
  5
59E
  8
L_Aisle_Misc
 10
8289.833948002437
 20
10215.060066358423
 30
0.0
 70
0
  0
SEQEND
  5
59A
  8
L_Aisle_Misc
  0
POLYLINE
  5
59F
  8
L_Aisle_Misc
 66
1
 10
0.0
 20
0.0
 30
0.0
 70
0
  0
VERTEX
  5
5A1
  8
L_Aisle_Misc
 10
7435.605556835228
 20
11728.615295868725
 30
0.0
 70
0
  0
VERTEX
  5
5A2
  8
L_Aisle_Misc
 10
8117.6143849660775
 20
11406.87609475276
 30
0.0
 70
0
  0
VERTEX
  5
5A3
  8
L_Aisle_Misc
 10
8014.442834212496
 20
11208.238998484001
 30
0.0
 70
0
  0
VERTEX
  5
5A4
  8
L_Aisle_Misc
 10
7214.087843445943
 20
11551.124952174083
 30
0.0
 70
0
  0
VERTEX
  5
5A5
  8
L_Aisle_Misc
 10
7435.605556835228
 20
11728.615295868725
 30
0.0
 70
0
  0
SEQEND
  5
5A0
  8
L_Aisle_Misc
  0
POLYLINE
  5
5A6
  8
L_Aisle_Misc
 66
1
 10
0.0
 20
0.0
 30
0.0
 70
0
  0
VERTEX
  5
5A8
  8
L_Aisle_Misc
 10
9281.356289362184
 20
10708.262015434024
 30
0.0
 70
0
  0
VERTEX
  5
5A9
  8
L_Aisle_Misc
 10
9191.08159775934
 20
10509.624762813371
 30
0.0
 70
0
  0
VERTEX
  5
5AA
  8
L_Aisle_Misc
 10
9175.90937560784
 20
10476.392670824547
 30
0.0
 70
0
  0
VERTEX
  5
5AB
  8
L_Aisle_Misc
 10
9080.324539292636
 20
10248.299736882092
 30
0.0
 70
0
  0
VERTEX
  5
5AC
  8
L_Aisle_Misc
 10
8785.971594755443
 20
10762.636495456545
 30
0.0
 70
0
  0
VERTEX
  5
5AD
  8
L_Aisle_Misc
 10
8947.558368614236
 20
10862.333877711788
 30
0.0
 70
0
  0
VERTEX
  5
5AE
  8
L_Aisle_Misc
 10
9038.593242265348
 20
10909.916867369187
 30
0.0
 70
0
  0
VERTEX
  5
5AF
  8
L_Aisle_Misc
 10
9131.903981924916
 20
10958.255157401047
 30
0.0
 70
0
  0
VERTEX
  5
5B0
  8
L_Aisle_Misc
 10
9281.356289362184
 20
10708.262015434024
 30
0.0
 70
0
  0
SEQEND
  5
5A7
  8
L_Aisle_Misc
  0
POLYLINE
  5
5B1
  8
L_Aisle_Misc
 66
1
 10
0.0
 20
0.0
 30
0.0
 70
0
  0
VERTEX
  5
5B3
  8
L_Aisle_Misc
 10
7226.977900430072
 20
12363.795599695612
 30
0.0
 70
0
  0
VERTEX
  5
5B4
  8
L_Aisle_Misc
 10
7096.495959902844
 20
12131.92672676184
 30
0.0
 70
0
  0
VERTEX
  5
5B5
  8
L_Aisle_Misc
 10
6210.416990450694
 20
12526.170880803891
 30
0.0
 70
0
  0
VERTEX
  5
5B6
  8
L_Aisle_Misc
 10
6153.519810072467
 20
12553.360187910384
 30
0.0
 70
0
  0
VERTEX
  5
5B7
  8
L_Aisle_Misc
 10
6264.27754348597
 20
12800.334060614216
 30
0.0
 70
0
  0
VERTEX
  5
5B8
  8
L_Aisle_Misc
 10
6836.283901823807
 20
12526.175474915342
 30
0.0
 70
0
  0
VERTEX
  5
5B9
  8
L_Aisle_Misc
 10
7226.977900430072
 20
12363.795599695612
 30
0.0
 70
0
  0
SEQEND
  5
5B2
  8
L_Aisle_Misc
  0
POLYLINE
  5
5BA
  8
L_Aisle_Misc
 66
1
 10
0.0
 20
0.0
 30
0.0
 70
0
  0
VERTEX
  5
5BC
  8
L_Aisle_Misc
 10
2115.3510865718195
 20
12415.127068689148
 30
0.0
 70
0
  0
VERTEX
  5
5BD
  8
L_Aisle_Misc
 10
1808.1077265905592
 20
12201.385058119862
 30
0.0
 70
0
  0
VERTEX
  5
5BE
  8
L_Aisle_Misc
 10
1643.4852632050574
 20
12439.294698585845
 30
0.0
 70
0
  0
VERTEX
  5
5BF
  8
L_Aisle_Misc
 10
1567.6224465111034
 20
12526.150563484442
 30
0.0
 70
0
  0
VERTEX
  5
5C0
  8
L_Aisle_Misc
 10
1503.8976929726646
 20
12598.65632656542
 30
0.0
 70
0
  0
VERTEX
  5
5C1
  8
L_Aisle_Misc
 10
1147.3427848630552
 20
12950.611304098205
 30
0.0
 70
0
  0
VERTEX
  5
5C2
  8
L_Aisle_Misc
 10
1333.9642646683499
 20
13326.735539697549
 30
0.0
 70
0
  0
VERTEX
  5
5C3
  8
L_Aisle_Misc
 10
1770.9336676488685
 20
12875.840675583515
 30
0.0
 70
0
  0
VERTEX
  5
5C4
  8
L_Aisle_Misc
 10
1943.142223594554
 20
12695.331666577353
 30
0.0
 70
0
  0
VERTEX
  5
5C5
  8
L_Aisle_Misc
 10
2050.8675648839253
 20
12526.151547198431
 30
0.0
 70
0
  0
VERTEX
  5
5C6
  8
L_Aisle_Misc
 10
2115.3510865718195
 20
12415.127068689148
 30
0.0
 70
0
  0
SEQEND
  5
5BB
  8
L_Aisle_Misc
  0
POLYLINE
  5
5C7
  8
L_Aisle_Misc
 66
1
 10
0.0
 20
0.0
 30
0.0
 70
0
  0
VERTEX
  5
5C9
  8
L_Aisle_Misc
 10
1552.460387927967
 20
6531.178502498238
 30
0.0
 70
0
  0
VERTEX
  5
5CA
  8
L_Aisle_Misc
 10
1375.6997708193858
 20
6167.135784331242
 30
0.0
 70
0
  0
VERTEX
  5
5CB
  8
L_Aisle_Misc
 10
1192.1107132224936
 20
6253.99212805751
 30
0.0
 70
0
  0
VERTEX
  5
5CC
  8
L_Aisle_Misc
 10
1378.7335932326032
 20
6621.811162499737
 30
0.0
 70
0
  0
VERTEX
  5
5CD
  8
L_Aisle_Misc
 10
1552.460387927967
 20
6531.178502498238
 30
0.0
 70
0
  0
SEQEND
  5
5C8
  8
L_Aisle_Misc
  0
POLYLINE
  5
5CE
  8
L_Aisle_Misc
 66
1
 10
0.0
 20
0.0
 30
0.0
 70
0
  0
VERTEX
  5
5D0
  8
L_Aisle_Misc
 10
1867.2936905783388
 20
5980.583761792268
 30
0.0
 70
0
  0
VERTEX
  5
5D1
  8
L_Aisle_Misc
 10
1847.5693426950536
 20
5938.288316620121
 30
0.0
 70
0
  0
VERTEX
  5
5D2
  8
L_Aisle_Misc
 10
1761.0851901032852
 20
5980.583544967316
 30
0.0
 70
0
  0
SEQEND
  5
5CF
  8
L_Aisle_Misc
  0
POLYLINE
  5
5D3
  8
L_Aisle_Misc
 66
1
 10
0.0
 20
0.0
 30
0.0
 70
0
  0
VERTEX
  5
5D5
  8
L_Aisle_Misc
 10
1761.0851901032852
 20
5980.583544967316
 30
0.0
 70
0
  0
VERTEX
  5
5D6
  8
L_Aisle_Misc
 10
1697.3600319798195
 20
6010.794422712227
 30
0.0
 70
0
  0
VERTEX
  5
5D7
  8
L_Aisle_Misc
 10
1867.2928558554318
 20
6377.858353211224
 30
0.0
 70
0
  0
VERTEX
  5
5D8
  8
L_Aisle_Misc
 10
2022.053909716953
 20
6305.352315806316
 30
0.0
 70
0
  0
VERTEX
  5
5D9
  8
L_Aisle_Misc
 10
1867.2936905783388
 20
5980.583761792268
 30
0.0
 70
0
  0
SEQEND
  5
5D4
  8
L_Aisle_Misc
  0
POLYLINE
  5
5DA
  8
L_Aisle_Misc
 66
1
 10
0.0
 20
0.0
 30
0.0
 70
0
  0
VERTEX
  5
5DC
  8
L_Aisle_Misc
 10
2436.267800710723
 20
5980.585139430887
 30
0.0
 70
0
  0
VERTEX
  5
5DD
  8
L_Aisle_Misc
 10
2304.266502530584
 20
5712.462102453319
 30
0.0
 70
0
  0
VERTEX
  5
5DE
  8
L_Aisle_Misc
 10
2129.7808532842187
 20
5797.052494921638
 30
0.0
 70
0
  0
VERTEX
  5
5DF
  8
L_Aisle_Misc
 10
2220.8162711029618
 20
5980.584574921246
 30
0.0
 70
0
  0
SEQEND
  5
5DB
  8
L_Aisle_Misc
  0
POLYLINE
  5
5E0
  8
L_Aisle_Misc
 66
1
 10
0.0
 20
0.0
 30
0.0
 70
0
  0
VERTEX
  5
5E2
  8
L_Aisle_Misc
 10
2220.8162711029618
 20
5980.584574921246
 30
0.0
 70
0
  0
VERTEX
  5
5E3
  8
L_Aisle_Misc
 10
2311.0930114571847
 20
6167.137724496777
 30
0.0
 70
0
  0
VERTEX
  5
5E4
  8
L_Aisle_Misc
 10
2483.302717510991
 20
6079.526296442076
 30
0.0
 70
0
  0
VERTEX
  5
5E5
  8
L_Aisle_Misc
 10
2436.267800710723
 20
5980.585139430887
 30
0.0
 70
0
  0
SEQEND
  5
5E1
  8
L_Aisle_Misc
  0
POLYLINE
  5
5E6
  8
L_Aisle_Misc
 66
1
 10
0.0
 20
0.0
 30
0.0
 70
0
  0
VERTEX
  5
5E8
  8
L_Aisle_Misc
 10
1204.2520006263649
 20
3909.61602148848
 30
0.0
 70
0
  0
VERTEX
  5
5E9
  8
L_Aisle_Misc
 10
1253.5634213305752
 20
3756.2948861506934
 30
0.0
 70
0
  0
VERTEX
  5
5EA
  8
L_Aisle_Misc
 10
1305.150700625909
 20
3644.513967767562
 30
0.0
 70
0
  0
VERTEX
  5
5EB
  8
L_Aisle_Misc
 10
1361.2896639920707
 20
3620.3451869708174
 30
0.0
 70
0
  0
VERTEX
  5
5EC
  8
L_Aisle_Misc
 10
1407.5663288571147
 20
3632.4296918714585
 30
0.0
 70
0
  0
VERTEX
  5
5ED
  8
L_Aisle_Misc
 10
1545.6376550316622
 20
3683.788758177819
 30
0.0
 70
0
  0
SEQEND
  5
5E7
  8
L_Aisle_Misc
  0
POLYLINE
  5
5EE
  8
L_Aisle_Misc
 66
1
 10
0.0
 20
0.0
 30
0.0
 70
0
  0
VERTEX
  5
5F0
  8
L_Aisle_Misc
 10
1658.6744737859033
 20
3503.2777425848926
 30
0.0
 70
0
  0
VERTEX
  5
5F1
  8
L_Aisle_Misc
 10
1478.8782845076125
 20
3424.7285991672948
 30
0.0
 70
0
  0
VERTEX
  5
5F2
  8
L_Aisle_Misc
 10
1280.1160599756229
 20
3445.876051925974
 30
0.0
 70
0
  0
VERTEX
  5
5F3
  8
L_Aisle_Misc
 10
1211.8389473468637
 20
3464.0026086678276
 30
0.0
 70
0
  0
VERTEX
  5
5F4
  8
L_Aisle_Misc
 10
1147.3549621850514
 20
3518.382478015455
 30
0.0
 70
0
  0
VERTEX
  5
5F5
  8
L_Aisle_Misc
 10
1105.6299995401894
 20
3581.8257023166957
 30
0.0
 70
0
  0
VERTEX
  5
5F6
  8
L_Aisle_Misc
 10
1044.180513501894
 20
3680.766919517699
 30
0.0
 70
0
  0
VERTEX
  5
5F7
  8
L_Aisle_Misc
 10
988.0413786851069
 20
3870.3413603801037
 30
0.0
 70
0
  0
SEQEND
  5
5EF
  8
L_Aisle_Misc
  0
POLYLINE
  5
5F8
  8
L_Aisle_Misc
 66
1
 10
0.0
 20
0.0
 30
0.0
 70
0
  0
VERTEX
  5
5FA
  8
L_Aisle_Misc
 10
276.44169539081224
 20
7211.6793389202885
 30
0.0
 70
0
  0
VERTEX
  5
5FB
  8
L_Aisle_Misc
 10
676.240436638635
 20
7010.021367736543
 30
0.0
 70
0
  0
VERTEX
  5
5FC
  8
L_Aisle_Misc
 10
1093.4879455840799
 20
6757.004894331209
 30
0.0
 70
0
  0
VERTEX
  5
5FD
  8
L_Aisle_Misc
 10
897.0027552135864
 20
6395.983437356178
 30
0.0
 70
0
  0
VERTEX
  5
5FE
  8
L_Aisle_Misc
 10
108.78427889107545
 20
6757.0042281361875
 30
0.0
 70
0
  0
SEQEND
  5
5F9
  8
L_Aisle_Misc
  0
POLYLINE
  5
5FF
  8
L_Aisle_Misc
 66
1
 10
0.0
 20
0.0
 30
0.0
 70
0
  0
VERTEX
  5
601
  8
L_Aisle_Misc
 10
-153.70210114998898
 20
7413.337449602778
 30
0.0
 70
0
  0
VERTEX
  5
602
  8
L_Aisle_Misc
 10
276.44169539081224
 20
7211.6793389202885
 30
0.0
 70
0
  0
SEQEND
  5
600
  8
L_Aisle_Misc
  0
POLYLINE
  5
603
  8
L_Aisle_Misc
 66
1
 10
0.0
 20
0.0
 30
0.0
 70
0
  0
VERTEX
  5
605
  8
L_Aisle_Misc
 10
108.78427889107545
 20
6757.0042281361875
 30
0.0
 70
0
  0
VERTEX
  5
606
  8
L_Aisle_Misc
 10
-961.6442828378088
 20
7184.489951301069
 30
0.0
 70
0
  0
VERTEX
  5
607
  8
L_Aisle_Misc
 10
-866.0565386775602
 20
7413.337858327019
 30
0.0
 70
0
  0
SEQEND
  5
604
  8
L_Aisle_Misc
  0
POLYLINE
  5
608
  8
L_Aisle_Misc
 66
1
 10
0.0
 20
0.0
 30
0.0
 70
0
  0
VERTEX
  5
60A
  8
L_Aisle_Misc
 10
233.95882479018994
 20
5423.18866653191
 30
0.0
 70
0
  0
VERTEX
  5
60B
  8
L_Aisle_Misc
 10
173.26820694403344
 20
5465.484080971846
 30
0.0
 70
0
  0
VERTEX
  5
60C
  8
L_Aisle_Misc
 10
342.4431913709669
 20
5679.227068173968
 30
0.0
 70
0
  0
VERTEX
  5
60D
  8
L_Aisle_Misc
 10
523.7564530508688
 20
5480.58972824268
 30
0.0
 70
0
  0
SEQEND
  5
609
  8
L_Aisle_Misc
  0
POLYLINE
  5
60E
  8
L_Aisle_Misc
 66
1
 10
0.0
 20
0.0
 30
0.0
 70
0
  0
VERTEX
  5
610
  8
L_Aisle_Misc
 10
757.4154342912497
 20
5306.12124438081
 30
0.0
 70
0
  0
VERTEX
  5
611
  8
L_Aisle_Misc
 10
862.8654327248682
 20
5254.762596712306
 30
0.0
 70
0
  0
VERTEX
  5
612
  8
L_Aisle_Misc
 10
708.1045115722353
 20
5050.082730360828
 30
0.0
 70
0
  0
VERTEX
  5
613
  8
L_Aisle_Misc
 10
612.5167171294995
 20
5113.525828121837
 30
0.0
 70
0
  0
SEQEND
  5
60F
  8
L_Aisle_Misc
  0
POLYLINE
  5
614
  8
L_Aisle_Misc
 66
1
 10
0.0
 20
0.0
 30
0.0
 70
0
  0
VERTEX
  5
616
  8
L_Aisle_Misc
 10
523.7564530508688
 20
5480.58972824268
 30
0.0
 70
0
  0
VERTEX
  5
617
  8
L_Aisle_Misc
 10
757.4154342912497
 20
5306.12124438081
 30
0.0
 70
0
  0
SEQEND
  5
615
  8
L_Aisle_Misc
  0
POLYLINE
  5
618
  8
L_Aisle_Misc
 66
1
 10
0.0
 20
0.0
 30
0.0
 70
0
  0
VERTEX
  5
61A
  8
L_Aisle_Misc
 10
-16.389945347150164
 20
5158.842163079394
 30
0.0
 70
0
  0
VERTEX
  5
61B
  8
L_Aisle_Misc
 10
-396.4650560437575
 20
5037.998123137503
 30
0.0
 70
0
  0
VERTEX
  5
61C
  8
L_Aisle_Misc
 10
-683.9870653884924
 20
4881.656183625466
 30
0.0
 70
0
  0
VERTEX
  5
61D
  8
L_Aisle_Misc
 10
-875.1627213103504
 20
4761.5674622566
 30
0.0
 70
0
  0
VERTEX
  5
61E
  8
L_Aisle_Misc
 10
-1155.0986882544873
 20
4514.592469101683
 30
0.0
 70
0
  0
VERTEX
  5
61F
  8
L_Aisle_Misc
 10
-1356.8950246355123
 20
4611.268114169752
 30
0.0
 70
0
  0
VERTEX
  5
620
  8
L_Aisle_Misc
 10
-1064.820826995008
 20
4920.93090839342
 30
0.0
 70
0
  0
VERTEX
  5
621
  8
L_Aisle_Misc
 10
-801.5750145694891
 20
5080.293842916824
 30
0.0
 70
0
  0
VERTEX
  5
622
  8
L_Aisle_Misc
 10
-482.94909838185777
 20
5248.720103644354
 30
0.0
 70
0
  0
VERTEX
  5
623
  8
L_Aisle_Misc
 10
-67.97696202815719
 20
5381.648483495985
 30
0.0
 70
0
  0
VERTEX
  5
624
  8
L_Aisle_Misc
 10
233.95882479018994
 20
5423.18866653191
 30
0.0
 70
0
  0
SEQEND
  5
619
  8
L_Aisle_Misc
  0
POLYLINE
  5
625
  8
L_Aisle_Misc
 66
1
 10
0.0
 20
0.0
 30
0.0
 70
0
  0
VERTEX
  5
627
  8
L_Aisle_Misc
 10
443.34154114481396
 20
5198.1166116823215
 30
0.0
 70
0
  0
VERTEX
  5
628
  8
L_Aisle_Misc
 10
-16.389945347150164
 20
5158.842163079394
 30
0.0
 70
0
  0
SEQEND
  5
626
  8
L_Aisle_Misc
  0
POLYLINE
  5
629
  8
L_Aisle_Misc
 66
1
 10
0.0
 20
0.0
 30
0.0
 70
0
  0
VERTEX
  5
62B
  8
L_Aisle_Misc
 10
-668.8148358867663
 20
4306.890966327859
 30
0.0
 70
0
  0
VERTEX
  5
62C
  8
L_Aisle_Misc
 10
443.34154114481396
 20
5198.1166116823215
 30
0.0
 70
0
  0
SEQEND
  5
62A
  8
L_Aisle_Misc
  0
POLYLINE
  5
62D
  8
L_Aisle_Misc
 66
1
 10
0.0
 20
0.0
 30
0.0
 70
0
  0
VERTEX
  5
62F
  8
L_Aisle_Misc
 10
612.5167171294995
 20
5113.525828121837
 30
0.0
 70
0
  0
VERTEX
  5
630
  8
L_Aisle_Misc
 10
-477.63922212973273
 20
4219.278768410035
 30
0.0
 70
0
  0
VERTEX
  5
631
  8
L_Aisle_Misc
 10
-668.8148358867663
 20
4306.890966327859
 30
0.0
 70
0
  0
SEQEND
  5
62E
  8
L_Aisle_Misc
  0
POLYLINE
  5
632
  8
L_Aisle_Misc
 66
1
 10
0.0
 20
0.0
 30
0.0
 70
0
  0
VERTEX
  5
634
  8
L_Aisle_Misc
 10
988.0413786851069
 20
3870.3413603801037
 30
0.0
 70
0
  0
VERTEX
  5
635
  8
L_Aisle_Misc
 10
983.4893751304021
 20
4050.8525001056705
 30
0.0
 70
0
  0
VERTEX
  5
636
  8
L_Aisle_Misc
 10
1037.3520016896532
 20
4370.3345407921925
 30
0.0
 70
0
  0
VERTEX
  5
637
  8
L_Aisle_Misc
 10
-173.42715579495996
 20
4078.0419331150897
 30
0.0
 70
0
  0
VERTEX
  5
638
  8
L_Aisle_Misc
 10
-477.63922212973273
 20
4219.278768410035
 30
0.0
 70
0
  0
VERTEX
  5
639
  8
L_Aisle_Misc
 10
1309.701010520839
 20
4658.850443297056
 30
0.0
 70
0
  0
VERTEX
  5
63A
  8
L_Aisle_Misc
 10
1201.9759364115578
 20
4029.705021713211
 30
0.0
 70
0
  0
VERTEX
  5
63B
  8
L_Aisle_Misc
 10
1204.2520006263649
 20
3909.61602148848
 30
0.0
 70
0
  0
SEQEND
  5
633
  8
L_Aisle_Misc
  0
POLYLINE
  5
63C
  8
L_Aisle_Misc
 66
1
 10
0.0
 20
0.0
 30
0.0
 70
0
  0
VERTEX
  5
63E
  8
L_Aisle_Misc
 10
1883.9884861443018
 20
3674.7260868388666
 30
0.0
 70
0
  0
VERTEX
  5
63F
  8
L_Aisle_Misc
 10
2664.625545105772
 20
2822.775225734057
 30
0.0
 70
0
  0
VERTEX
  5
640
  8
L_Aisle_Misc
 10
2016.7507672987288
 20
3096.939288493542
 30
0.0
 70
0
  0
VERTEX
  5
641
  8
L_Aisle_Misc
 10
1658.6744737859033
 20
3503.2777425848926
 30
0.0
 70
0
  0
SEQEND
  5
63D
  8
L_Aisle_Misc
  0
POLYLINE
  5
642
  8
L_Aisle_Misc
 66
1
 10
0.0
 20
0.0
 30
0.0
 70
0
  0
VERTEX
  5
644
  8
L_Aisle_Misc
 10
1751.9858537541961
 20
3825.0259267827096
 30
0.0
 70
0
  0
VERTEX
  5
645
  8
L_Aisle_Misc
 10
1923.4368079051674
 20
3976.0816428696876
 30
0.0
 70
0
  0
VERTEX
  5
646
  8
L_Aisle_Misc
 10
2050.8869561119
 20
4123.360881018677
 30
0.0
 70
0
  0
VERTEX
  5
647
  8
L_Aisle_Misc
 10
2166.1986813178837
 20
4370.336575420329
 30
0.0
 70
0
  0
VERTEX
  5
648
  8
L_Aisle_Misc
 10
2198.8195808335554
 20
4508.552227982502
 30
0.0
 70
0
  0
VERTEX
  5
649
  8
L_Aisle_Misc
 10
2237.5092397540134
 20
4764.59095217115
 30
0.0
 70
0
  0
VERTEX
  5
64A
  8
L_Aisle_Misc
 10
2262.5438369331987
 20
4881.658800466131
 30
0.0
 70
0
  0
VERTEX
  5
64B
  8
L_Aisle_Misc
 10
2459.02983093221
 20
4872.596010447028
 30
0.0
 70
0
  0
VERTEX
  5
64C
  8
L_Aisle_Misc
 10
2436.2712252653996
 20
4731.359327042847
 30
0.0
 70
0
  0
VERTEX
  5
64D
  8
L_Aisle_Misc
 10
2394.5470965042077
 20
4472.299470893302
 30
0.0
 70
0
  0
VERTEX
  5
64E
  8
L_Aisle_Misc
 10
2352.8227037021015
 20
4303.872723194774
 30
0.0
 70
0
  0
VERTEX
  5
64F
  8
L_Aisle_Misc
 10
2217.786656084524
 20
4011.5803349626512
 30
0.0
 70
0
  0
VERTEX
  5
650
  8
L_Aisle_Misc
 10
2066.060303132431
 20
3834.0899239262294
 30
0.0
 70
0
  0
VERTEX
  5
651
  8
L_Aisle_Misc
 10
1883.9884861443018
 20
3674.7260868388666
 30
0.0
 70
0
  0
SEQEND
  5
643
  8
L_Aisle_Misc
  0
POLYLINE
  5
652
  8
L_Aisle_Misc
 66
1
 10
0.0
 20
0.0
 30
0.0
 70
0
  0
VERTEX
  5
654
  8
L_Aisle_Misc
 10
1545.6376550316622
 20
3683.788758177819
 30
0.0
 70
0
  0
VERTEX
  5
655
  8
L_Aisle_Misc
 10
1751.9858537541961
 20
3825.0259267827096
 30
0.0
 70
0
  0
SEQEND
  5
653
  8
L_Aisle_Misc
  0
POLYLINE
  5
656
  8
L_Aisle_Misc
 66
1
 10
0.0
 20
0.0
 30
0.0
 70
0
  0
VERTEX
  5
658
  8
L_Aisle_Misc
 10
1697.3600319798195
 20
6010.794422712227
 30
0.0
 70
0
  0
VERTEX
  5
659
  8
L_Aisle_Misc
 10
1375.6997708193858
 20
6167.135784331242
 30
0.0
 70
0
  0
VERTEX
  5
65A
  8
L_Aisle_Misc
 10
1552.460387927967
 20
6531.178502498238
 30
0.0
 70
0
  0
VERTEX
  5
65B
  8
L_Aisle_Misc
 10
1867.2928558554318
 20
6377.858353211224
 30
0.0
 70
0
  0
VERTEX
  5
65C
  8
L_Aisle_Misc
 10
1697.3600319798195
 20
6010.794422712227
 30
0.0
 70
0
  0
SEQEND
  5
657
  8
L_Aisle_Misc
  0
POLYLINE
  5
65D
  8
L_Aisle_Misc
 66
1
 10
0.0
 20
0.0
 30
0.0
 70
0
  0
VERTEX
  5
65F
  8
L_Aisle_Misc
 10
2220.8162711029618
 20
5980.584574921246
 30
0.0
 70
0
  0
VERTEX
  5
660
  8
L_Aisle_Misc
 10
2129.7808532842187
 20
5797.052494921638
 30
0.0
 70
0
  0
VERTEX
  5
661
  8
L_Aisle_Misc
 10
1847.5693426950536
 20
5938.288316620121
 30
0.0
 70
0
  0
VERTEX
  5
662
  8
L_Aisle_Misc
 10
1867.2936905783388
 20
5980.583761792268
 30
0.0
 70
0
  0
SEQEND
  5
65E
  8
L_Aisle_Misc
  0
POLYLINE
  5
663
  8
L_Aisle_Misc
 66
1
 10
0.0
 20
0.0
 30
0.0
 70
0
  0
VERTEX
  5
665
  8
L_Aisle_Misc
 10
1867.2936905783388
 20
5980.583761792268
 30
0.0
 70
0
  0
VERTEX
  5
666
  8
L_Aisle_Misc
 10
2022.053909716953
 20
6305.352315806316
 30
0.0
 70
0
  0
VERTEX
  5
667
  8
L_Aisle_Misc
 10
2311.0930114571847
 20
6167.137724496777
 30
0.0
 70
0
  0
VERTEX
  5
668
  8
L_Aisle_Misc
 10
2220.8162711029618
 20
5980.584574921246
 30
0.0
 70
0
  0
SEQEND
  5
664
  8
L_Aisle_Misc
  0
POLYLINE
  5
669
  8
L_Aisle_Misc
 66
1
 10
0.0
 20
0.0
 30
0.0
 70
0
  0
VERTEX
  5
66B
  8
L_Aisle_Misc
 10
2687.3750415823183
 20
5980.585863266505
 30
0.0
 70
0
  0
VERTEX
  5
66C
  8
L_Aisle_Misc
 10
2822.4117749221277
 20
5914.122074417282
 30
0.0
 70
0
  0
VERTEX
  5
66D
  8
L_Aisle_Misc
 10
2642.6170610964464
 20
5537.994437243727
 30
0.0
 70
0
  0
VERTEX
  5
66E
  8
L_Aisle_Misc
 10
2304.266502530584
 20
5712.462102453319
 30
0.0
 70
0
  0
VERTEX
  5
66F
  8
L_Aisle_Misc
 10
2436.267800710723
 20
5980.585139430887
 30
0.0
 70
0
  0
SEQEND
  5
66A
  8
L_Aisle_Misc
  0
POLYLINE
  5
670
  8
L_Aisle_Misc
 66
1
 10
0.0
 20
0.0
 30
0.0
 70
0
  0
VERTEX
  5
672
  8
L_Aisle_Misc
 10
2436.267800710723
 20
5980.585139430887
 30
0.0
 70
0
  0
VERTEX
  5
673
  8
L_Aisle_Misc
 10
2483.302717510991
 20
6079.526296442076
 30
0.0
 70
0
  0
VERTEX
  5
674
  8
L_Aisle_Misc
 10
2687.3750415823183
 20
5980.585863266505
 30
0.0
 70
0
  0
SEQEND
  5
671
  8
L_Aisle_Misc
  0
POLYLINE
  5
675
  8
L_Aisle_Misc
 66
1
 10
0.0
 20
0.0
 30
0.0
 70
0
  0
VERTEX
  5
677
  8
L_Aisle_Misc
 10
1192.1107132224936
 20
6253.99212805751
 30
0.0
 70
0
  0
VERTEX
  5
678
  8
L_Aisle_Misc
 10
897.0027552135864
 20
6395.983437356178
 30
0.0
 70
0
  0
VERTEX
  5
679
  8
L_Aisle_Misc
 10
1093.4879455840799
 20
6757.004894331209
 30
0.0
 70
0
  0
VERTEX
  5
67A
  8
L_Aisle_Misc
 10
1378.7335932326032
 20
6621.811162499737
 30
0.0
 70
0
  0
VERTEX
  5
67B
  8
L_Aisle_Misc
 10
1192.1107132224936
 20
6253.99212805751
 30
0.0
 70
0
  0
SEQEND
  5
676
  8
L_Aisle_Misc
  0
POLYLINE
  5
67C
  8
L_Aisle_Misc
 66
1
 10
0.0
 20
0.0
 30
0.0
 70
0
  0
VERTEX
  5
67E
  8
L_Aisle_Misc
 10
-70.25281247898947
 20
5980.581802932485
 30
0.0
 70
0
  0
VERTEX
  5
67F
  8
L_Aisle_Misc
 10
40.50748336795497
 20
5923.1808948827675
 30
0.0
 70
0
  0
VERTEX
  5
680
  8
L_Aisle_Misc
 10
342.4431913709669
 20
5679.227068173968
 30
0.0
 70
0
  0
VERTEX
  5
681
  8
L_Aisle_Misc
 10
173.26820694403344
 20
5465.484080971846
 30
0.0
 70
0
  0
VERTEX
  5
682
  8
L_Aisle_Misc
 10
-109.70171943795573
 20
5694.332515189752
 30
0.0
 70
0
  0
VERTEX
  5
683
  8
L_Aisle_Misc
 10
-244.73827127862222
 20
5745.691260578188
 30
0.0
 70
0
  0
VERTEX
  5
684
  8
L_Aisle_Misc
 10
-92.25314501464942
 20
5980.581804915208
 30
0.0
 70
0
  0
SEQEND
  5
67D
  8
L_Aisle_Misc
  0
POLYLINE
  5
685
  8
L_Aisle_Misc
 66
1
 10
0.0
 20
0.0
 30
0.0
 70
0
  0
VERTEX
  5
687
  8
L_Aisle_Misc
 10
862.8654327248682
 20
5254.762596712306
 30
0.0
 70
0
  0
VERTEX
  5
688
  8
L_Aisle_Misc
 10
1039.6269586981718
 20
5176.969388990353
 30
0.0
 70
0
  0
VERTEX
  5
689
  8
L_Aisle_Misc
 10
1167.0773301033068
 20
5134.6741049852835
 30
0.0
 70
0
  0
VERTEX
  5
68A
  8
L_Aisle_Misc
 10
1295.286324546134
 20
5107.484354598517
 30
0.0
 70
0
  0
VERTEX
  5
68B
  8
L_Aisle_Misc
 10
1540.3247852581212
 20
5086.33702292758
 30
0.0
 70
0
  0
VERTEX
  5
68C
  8
L_Aisle_Misc
 10
1722.3966837607566
 20
5086.337357158074
 30
0.0
 70
0
  0
VERTEX
  5
68D
  8
L_Aisle_Misc
 10
1896.123562277809
 20
5113.527639764417
 30
0.0
 70
0
  0
VERTEX
  5
68E
  8
L_Aisle_Misc
 10
1962.8831561713216
 20
5158.844330620802
 30
0.0
 70
0
  0
VERTEX
  5
68F
  8
L_Aisle_Misc
 10
1955.2974974134058
 20
4854.468135760689
 30
0.0
 70
0
  0
VERTEX
  5
690
  8
L_Aisle_Misc
 10
1742.1216531691116
 20
4824.256651514889
 30
0.0
 70
0
  0
VERTEX
  5
691
  8
L_Aisle_Misc
 10
1525.9112100810662
 20
4824.256253978873
 30
0.0
 70
0
  0
VERTEX
  5
692
  8
L_Aisle_Misc
 10
1253.5618851100403
 20
4845.403556687888
 30
0.0
 70
0
  0
VERTEX
  5
693
  8
L_Aisle_Misc
 10
1095.7661560800495
 20
4878.6354920415715
 30
0.0
 70
0
  0
VERTEX
  5
694
  8
L_Aisle_Misc
 10
946.3153829320377
 20
4929.994085680866
 30
0.0
 70
0
  0
VERTEX
  5
695
  8
L_Aisle_Misc
 10
708.1045115722353
 20
5050.082730360828
 30
0.0
 70
0
  0
VERTEX
  5
696
  8
L_Aisle_Misc
 10
862.8654327248682
 20
5254.762596712306
 30
0.0
 70
0
  0
SEQEND
  5
686
  8
L_Aisle_Misc
  0
POLYLINE
  5
697
  8
L_Aisle_Misc
 66
1
 10
0.0
 20
0.0
 30
0.0
 70
0
  0
VERTEX
  5
699
  8
L_Aisle_Misc
 10
8591.809041376875
 20
5980.62333163796
 30
0.0
 70
0
  0
VERTEX
  5
69A
  8
L_Aisle_Misc
 10
8601.671698123182
 20
5935.306922399092
 30
0.0
 70
0
  0
VERTEX
  5
69B
  8
L_Aisle_Misc
 10
8230.70131479577
 20
5853.7336955953815
 30
0.0
 70
0
  0
VERTEX
  5
69C
  8
L_Aisle_Misc
 10
8198.838815545918
 20
5847.691199765779
 30
0.0
 70
0
  0
VERTEX
  5
69D
  8
L_Aisle_Misc
 10
8174.561360642787
 20
5980.619395790638
 30
0.0
 70
0
  0
SEQEND
  5
698
  8
L_Aisle_Misc
  0
POLYLINE
  5
69E
  8
L_Aisle_Misc
 66
1
 10
0.0
 20
0.0
 30
0.0
 70
0
  0
VERTEX
  5
6A0
  8
L_Aisle_Misc
 10
8174.561360642787
 20
5980.619395790638
 30
0.0
 70
0
  0
VERTEX
  5
6A1
  8
L_Aisle_Misc
 10
7963.651837332595
 20
7072.744546749113
 30
0.0
 70
0
  0
VERTEX
  5
6A2
  8
L_Aisle_Misc
 10
7992.479769352132
 20
7078.786998533936
 30
0.0
 70
0
  0
VERTEX
  5
6A3
  8
L_Aisle_Misc
 10
8371.03640136483
 20
7115.043641052636
 30
0.0
 70
0
  0
VERTEX
  5
6A4
  8
L_Aisle_Misc
 10
8591.809041376875
 20
5980.62333163796
 30
0.0
 70
0
  0
SEQEND
  5
69F
  8
L_Aisle_Misc
  0
POLYLINE
  5
6A5
  8
L_RoadStructure
 66
1
 10
0.0
 20
0.0
 30
0.0
 70
0
  0
VERTEX
  5
6A7
  8
L_RoadStructure
 10
2149.5119042156184
 20
3063.707389678615
 30
0.0
 70
0
  0
VERTEX
  5
6A8
  8
L_RoadStructure
 10
2441.5865859533264
 20
2937.5767906649394
 30
0.0
 70
0
  0
SEQEND
  5
6A6
  8
L_RoadStructure
  0
POLYLINE
  5
6A9
  8
L_MapSymbol
 66
1
 10
0.0
 20
0.0
 30
0.0
 70
0
  0
VERTEX
  5
6AB
  8
L_MapSymbol
 10
767.281801865128
 20
508.59765594459685
 30
0.0
 70
0
  0
VERTEX
  5
6AC
  8
L_MapSymbol
 10
224.85678902721494
 20
-725.5304683903246
 30
0.0
 70
0
  0
VERTEX
  5
6AD
  8
L_MapSymbol
 10
2574.3614688811713
 20
-1827.48199341858
 30
0.0
 70
0
  0
VERTEX
  5
6AE
  8
L_MapSymbol
 10
3202.510088932975
 20
-629.6040827637656
 30
0.0
 70
0
  0
SEQEND
  5
6AA
  8
L_MapSymbol
  0
POLYLINE
  5
6AF
  8
L_MapSymbol
 66
1
 10
0.0
 20
0.0
 30
0.0
 70
0
  0
VERTEX
  5
6B1
  8
L_MapSymbol
 10
6975.940098925355
 20
3747.2580575560883
 30
0.0
 70
0
  0
VERTEX
  5
6B2
  8
L_MapSymbol
 10
6873.523526144496
 20
3873.388499014075
 30
0.0
 70
0
  0
VERTEX
  5
6B3
  8
L_MapSymbol
 10
6735.45103187257
 20
4020.666411783367
 30
0.0
 70
0
  0
VERTEX
  5
6B4
  8
L_MapSymbol
 10
6603.447579871309
 20
4177.762962319467
 30
0.0
 70
0
  0
VERTEX
  5
6B5
  8
L_MapSymbol
 10
6516.962370538236
 20
4309.935714859735
 30
0.0
 70
0
  0
VERTEX
  5
6B6
  8
L_MapSymbol
 10
6494.96118547215
 20
4420.961186855001
 30
0.0
 70
0
  0
VERTEX
  5
6B7
  8
L_MapSymbol
 10
6507.098679686439
 20
4508.573330106312
 30
0.0
 70
0
  0
VERTEX
  5
6B8
  8
L_MapSymbol
 10
6532.133071163397
 20
4578.058930424019
 30
0.0
 70
0
  0
VERTEX
  5
6B9
  8
L_MapSymbol
 10
6570.822953098706
 20
4634.704931599037
 30
0.0
 70
0
  0
VERTEX
  5
6BA
  8
L_MapSymbol
 10
6723.307719709798
 20
4704.1914788087315
 30
0.0
 70
0
  0
VERTEX
  5
6BB
  8
L_MapSymbol
 10
6931.931741887891
 20
4719.298603916521
 30
0.0
 70
0
  0
VERTEX
  5
6BC
  8
L_MapSymbol
 10
7120.83146294873
 20
4713.257888501607
 30
0.0
 70
0
  0
VERTEX
  5
6BD
  8
L_MapSymbol
 10
7265.730854336511
 20
4658.879178905472
 30
0.0
 70
0
  0
VERTEX
  5
6BE
  8
L_MapSymbol
 10
7371.94030843348
 20
4562.959974844237
 30
0.0
 70
0
  0
VERTEX
  5
6BF
  8
L_MapSymbol
 10
7447.8047327201675
 20
4433.053082852329
 30
0.0
 70
0
  0
VERTEX
  5
6C0
  8
L_MapSymbol
 10
7509.25526256916
 20
4288.7958039555215
 30
0.0
 70
0
  0
VERTEX
  5
6C1
  8
L_MapSymbol
 10
7555.533292299346
 20
4126.411738037715
 30
0.0
 70
0
  0
VERTEX
  5
6C2
  8
L_MapSymbol
 10
7572.983303228321
 20
3957.9851852125594
 30
0.0
 70
0
  0
VERTEX
  5
6C3
  8
L_MapSymbol
 10
7570.708836328565
 20
3789.5584326988464
 30
0.0
 70
0
  0
VERTEX
  5
6C4
  8
L_MapSymbol
 10
7560.847776413804
 20
3650.587388061265
 30
0.0
 70
0
  0
VERTEX
  5
6C5
  8
L_MapSymbol
 10
7543.399723439525
 20
3587.899244901938
 30
0.0
 70
0
  0
VERTEX
  5
6C6
  8
L_MapSymbol
 10
7523.6755414330755
 20
3551.6457777853716
 30
0.0
 70
0
  0
VERTEX
  5
6C7
  8
L_MapSymbol
 10
7452.364102026165
 20
3530.4974176475475
 30
0.0
 70
0
  0
VERTEX
  5
6C8
  8
L_MapSymbol
 10
7354.500260322796
 20
3533.517710633252
 30
0.0
 70
0
  0
VERTEX
  5
6C9
  8
L_MapSymbol
 10
7177.73780635568
 20
3617.3520218173885
 30
0.0
 70
0
  0
VERTEX
  5
6CA
  8
L_MapSymbol
 10
6975.940098925355
 20
3747.2580575560883
 30
0.0
 70
0
  0
SEQEND
  5
6B0
  8
L_MapSymbol
  0
POLYLINE
  5
6CB
  8
L_MapSymbol
 66
1
 10
0.0
 20
0.0
 30
0.0
 70
0
  0
VERTEX
  5
6CD
  8
L_MapSymbol
 10
8802.716528790477
 20
5198.160096485931
 30
0.0
 70
0
  0
VERTEX
  5
6CE
  8
L_MapSymbol
 10
8913.476858713553
 20
5204.203406294248
 30
0.0
 70
0
  0
VERTEX
  5
6CF
  8
L_MapSymbol
 10
9159.274605546305
 20
5134.720537319474
 30
0.0
 70
0
  0
VERTEX
  5
6D0
  8
L_MapSymbol
 10
9382.313530479623
 20
5053.153077266407
 30
0.0
 70
0
  0
VERTEX
  5
6D1
  8
L_MapSymbol
 10
9544.66174976812
 20
4981.403598415498
 30
0.0
 70
0
  0
VERTEX
  5
6D2
  8
L_MapSymbol
 10
9644.801994274587
 20
4917.961502000555
 30
0.0
 70
0
  0
VERTEX
  5
6D3
  8
L_MapSymbol
 10
9699.424431551
 20
4839.413393847753
 30
0.0
 70
0
  0
VERTEX
  5
6D4
  8
L_MapSymbol
 10
9728.253672387345
 20
4731.409232400099
 30
0.0
 70
0
  0
VERTEX
  5
6D5
  8
L_MapSymbol
 10
9699.427349595688
 20
4572.045644144508
 30
0.0
 70
0
  0
VERTEX
  5
6D6
  8
L_MapSymbol
 10
9374.739996112603
 20
3840.1791825675064
 30
0.0
 70
0
  0
VERTEX
  5
6D7
  8
L_MapSymbol
 10
9205.567483027624
 20
3563.7460412997866
 30
0.0
 70
0
  0
VERTEX
  5
6D8
  8
L_MapSymbol
 10
9104.670030633277
 20
3476.1328544279186
 30
0.0
 70
0
  0
VERTEX
  5
6D9
  8
L_MapSymbol
 10
9004.530151984374
 20
3491.2373773530335
 30
0.0
 70
0
  0
VERTEX
  5
6DA
  8
L_MapSymbol
 10
8905.907030623002
 20
3557.7007709322083
 30
0.0
 70
0
  0
VERTEX
  5
6DB
  8
L_MapSymbol
 10
8792.869493567427
 20
3662.6831556798434
 30
0.0
 70
0
  0
VERTEX
  5
6DC
  8
L_MapSymbol
 10
8641.139099852935
 20
4029.7462183833504
 30
0.0
 70
0
  0
VERTEX
  5
6DD
  8
L_MapSymbol
 10
8574.37723310157
 20
4246.50995827973
 30
0.0
 70
0
  0
VERTEX
  5
6DE
  8
L_MapSymbol
 10
8522.787835638812
 20
4487.442638298832
 30
0.0
 70
0
  0
VERTEX
  5
6DF
  8
L_MapSymbol
 10
8528.094138344572
 20
4917.95008455939
 30
0.0
 70
0
  0
VERTEX
  5
6E0
  8
L_MapSymbol
 10
8567.541637320033
 20
5065.229262306131
 30
0.0
 70
0
  0
VERTEX
  5
6E1
  8
L_MapSymbol
 10
8657.818161377167
 20
5146.799923111867
 30
0.0
 70
0
  0
VERTEX
  5
6E2
  8
L_MapSymbol
 10
8802.716528790477
 20
5198.160096485931
 30
0.0
 70
0
  0
SEQEND
  5
6CC
  8
L_MapSymbol
  0
POLYLINE
  5
6E3
  8
L_GardenRoad
 66
1
 10
0.0
 20
0.0
 30
0.0
 70
0
  0
VERTEX
  5
6E5
  8
L_GardenRoad
 10
-74.80422119755352
 20
10545.830256807327
 30
0.0
 70
0
  0
VERTEX
  5
6E6
  8
L_GardenRoad
 10
195.26746345282197
 20
10419.699974250447
 30
0.0
 70
0
  0
VERTEX
  5
6E7
  8
L_GardenRoad
 10
211.9572891726349
 20
10410.636722115198
 30
0.0
 70
0
  0
VERTEX
  5
6E8
  8
L_GardenRoad
 10
246.85425849179802
 20
10178.768404839626
 30
0.0
 70
0
  0
VERTEX
  5
6E9
  8
L_GardenRoad
 10
298.44105558438616
 20
10016.385028909517
 30
0.0
 70
0
  0
VERTEX
  5
6EA
  8
L_GardenRoad
 10
378.85575957063554
 20
9871.37288980282
 30
0.0
 70
0
  0
VERTEX
  5
6EB
  8
L_GardenRoad
 10
457.7532208148014
 20
9748.263618756397
 30
0.0
 70
0
  0
VERTEX
  5
6EC
  8
L_GardenRoad
 10
771.8258284344388
 20
9483.163365985518
 30
0.0
 70
0
  0
SEQEND
  5
6E4
  8
L_GardenRoad
  0
POLYLINE
  5
6ED
  8
L_GardenRoad
 66
1
 10
0.0
 20
0.0
 30
0.0
 70
0
  0
VERTEX
  5
6EF
  8
L_GardenRoad
 10
195.26746345282197
 20
10419.699974250447
 30
0.0
 70
0
  0
VERTEX
  5
6F0
  8
L_GardenRoad
 10
-916.884196177989
 20
8008.871141507517
 30
0.0
 70
0
  0
VERTEX
  5
6F1
  8
L_GardenRoad
 10
-749.9857719106041
 20
7692.411396640452
 30
0.0
 70
0
  0
VERTEX
  5
6F2
  8
L_GardenRoad
 10
-153.70210114998898
 20
7413.337449602778
 30
0.0
 70
0
  0
SEQEND
  5
6EE
  8
L_GardenRoad
  0
POLYLINE
  5
6F3
  8
L_GardenRoad
 66
1
 10
0.0
 20
0.0
 30
0.0
 70
0
  0
VERTEX
  5
6F5
  8
L_GardenRoad
 10
401.6142050339976
 20
10798.846164145167
 30
0.0
 70
0
  0
VERTEX
  5
6F6
  8
L_GardenRoad
 10
648.926665173818
 20
11181.013353441567
 30
0.0
 70
0
  0
VERTEX
  5
6F7
  8
L_GardenRoad
 10
757.4103198286925
 20
11307.143633732476
 30
0.0
 70
0
  0
VERTEX
  5
6F8
  8
L_GardenRoad
 10
890.1700318625617
 20
11424.965957589033
 30
0.0
 70
0
  0
VERTEX
  5
6F9
  8
L_GardenRoad
 10
1095.7578768786404
 20
11593.391486408427
 30
0.0
 70
0
  0
VERTEX
  5
6FA
  8
L_GardenRoad
 10
1223.9658083921665
 20
11659.855440036115
 30
0.0
 70
0
  0
VERTEX
  5
6FB
  8
L_GardenRoad
 10
1901.4193882992913
 20
11939.306588634472
 30
0.0
 70
0
  0
SEQEND
  5
6F4
  8
L_GardenRoad
  0
POLYLINE
  5
6FC
  8
L_GardenRoad
 66
1
 10
0.0
 20
0.0
 30
0.0
 70
0
  0
VERTEX
  5
6FE
  8
L_GardenRoad
 10
5102.826463369226
 20
11785.999373855173
 30
0.0
 70
0
  0
VERTEX
  5
6FF
  8
L_GardenRoad
 10
5481.382116756219
 20
11674.976906960277
 30
0.0
 70
0
  0
VERTEX
  5
700
  8
L_GardenRoad
 10
5800.0066415385645
 20
11511.840538333168
 30
0.0
 70
0
  0
VERTEX
  5
701
  8
L_GardenRoad
 10
5928.215437124261
 20
11397.795547039143
 30
0.0
 70
0
  0
VERTEX
  5
702
  8
L_GardenRoad
 10
6079.94197016657
 20
11247.497731314139
 30
0.0
 70
0
  0
VERTEX
  5
703
  8
L_GardenRoad
 10
6217.254568271003
 20
11105.507793564297
 30
0.0
 70
0
  0
VERTEX
  5
704
  8
L_GardenRoad
 10
6372.0154730341765
 20
10988.441917512482
 30
0.0
 70
0
  0
VERTEX
  5
705
  8
L_GardenRoad
 10
6637.5362155437215
 20
10856.27145466354
 30
0.0
 70
0
  0
VERTEX
  5
706
  8
L_GardenRoad
 10
7160.233300598331
 20
10557.943437905496
 30
0.0
 70
0
  0
VERTEX
  5
707
  8
L_GardenRoad
 10
7364.303871536991
 20
10609.303545637258
 30
0.0
 70
0
  0
VERTEX
  5
708
  8
L_GardenRoad
 10
7735.2714885451105
 20
10789.816485604746
 30
0.0
 70
0
  0
VERTEX
  5
709
  8
L_GardenRoad
 10
7906.719846868083
 20
10967.306662821444
 30
0.0
 70
0
  0
VERTEX
  5
70A
  8
L_GardenRoad
 10
8019.75350052305
 20
11178.028219521195
 30
0.0
 70
0
  0
VERTEX
  5
70B
  8
L_GardenRoad
 10
8014.442834212496
 20
11208.238998484001
 30
0.0
 70
0
  0
SEQEND
  5
6FD
  8
L_GardenRoad
  0
POLYLINE
  5
70C
  8
L_GardenRoad
 66
1
 10
0.0
 20
0.0
 30
0.0
 70
0
  0
VERTEX
  5
70E
  8
L_GardenRoad
 10
5245.444131433069
 20
12505.017113779699
 30
0.0
 70
0
  0
VERTEX
  5
70F
  8
L_GardenRoad
 10
5255.30615187964
 20
12526.164719491317
 30
0.0
 70
0
  0
VERTEX
  5
710
  8
L_GardenRoad
 10
5350.891756962228
 20
12748.969777125616
 30
0.0
 70
0
  0
VERTEX
  5
711
  8
L_GardenRoad
 10
4476.952254374545
 20
13131.131157113634
 30
0.0
 70
0
  0
VERTEX
  5
712
  8
L_GardenRoad
 10
3062.870530018807
 20
13937.752122637485
 30
0.0
 70
0
  0
VERTEX
  5
713
  8
L_GardenRoad
 10
4614.262113431127
 20
13411.336626762775
 30
0.0
 70
0
  0
VERTEX
  5
714
  8
L_GardenRoad
 10
5583.78831077086
 20
13026.155020635153
 30
0.0
 70
0
  0
VERTEX
  5
715
  8
L_GardenRoad
 10
5471.51292186724
 20
12818.455289495387
 30
0.0
 70
0
  0
VERTEX
  5
716
  8
L_GardenRoad
 10
6153.519810072467
 20
12553.360187910384
 30
0.0
 70
0
  0
SEQEND
  5
70D
  8
L_GardenRoad
  0
POLYLINE
  5
717
  8
L_GardenRoad
 66
1
 10
0.0
 20
0.0
 30
0.0
 70
0
  0
VERTEX
  5
719
  8
L_GardenRoad
 10
5974.487791236737
 20
11981.619758078086
 30
0.0
 70
0
  0
VERTEX
  5
71A
  8
L_GardenRoad
 10
5952.489019126032
 20
11770.899255124943
 30
0.0
 70
0
  0
VERTEX
  5
71B
  8
L_GardenRoad
 10
5957.0413087431425
 20
11692.351183581712
 30
0.0
 70
0
  0
VERTEX
  5
71C
  8
L_GardenRoad
 10
5982.076918833455
 20
11557.157967966406
 30
0.0
 70
0
  0
VERTEX
  5
71D
  8
L_GardenRoad
 10
6011.663713881011
 20
11508.82086324901
 30
0.0
 70
0
  0
VERTEX
  5
71E
  8
L_GardenRoad
 10
6119.389469058682
 20
11412.90225280096
 30
0.0
 70
0
  0
VERTEX
  5
71F
  8
L_GardenRoad
 10
6217.252819328779
 20
11355.502373572186
 30
0.0
 70
0
  0
VERTEX
  5
720
  8
L_GardenRoad
 10
6482.7730763167765
 20
11271.66923807214
 30
0.0
 70
0
  0
VERTEX
  5
721
  8
L_GardenRoad
 10
6740.706814275644
 20
11226.354920110645
 30
0.0
 70
0
  0
VERTEX
  5
722
  8
L_GardenRoad
 10
7027.468216627118
 20
11208.230645766527
 30
0.0
 70
0
  0
VERTEX
  5
723
  8
L_GardenRoad
 10
7290.711626412149
 20
11256.570086840056
 30
0.0
 70
0
  0
VERTEX
  5
724
  8
L_GardenRoad
 10
7457.608091657663
 20
11449.165457425583
 30
0.0
 70
0
  0
SEQEND
  5
718
  8
L_GardenRoad
  0
POLYLINE
  5
725
  8
L_GardenRoad
 66
1
 10
0.0
 20
0.0
 30
0.0
 70
0
  0
VERTEX
  5
727
  8
L_GardenRoad
 10
7698.088652474005
 20
11951.422216342355
 30
0.0
 70
0
  0
VERTEX
  5
728
  8
L_GardenRoad
 10
7096.495959902844
 20
12131.92672676184
 30
0.0
 70
0
  0
SEQEND
  5
726
  8
L_GardenRoad
  0
POLYLINE
  5
729
  8
L_GardenRoad
 66
1
 10
0.0
 20
0.0
 30
0.0
 70
0
  0
VERTEX
  5
72B
  8
L_GardenRoad
 10
7226.977900430072
 20
12363.795599695612
 30
0.0
 70
0
  0
VERTEX
  5
72C
  8
L_GardenRoad
 10
7795.949719632028
 20
12159.122302460397
 30
0.0
 70
0
  0
VERTEX
  5
72D
  8
L_GardenRoad
 10
10160.598731590104
 20
11367.623038176112
 30
0.0
 70
0
  0
SEQEND
  5
72A
  8
L_GardenRoad
  0
POLYLINE
  5
72E
  8
L_GardenRoad
 66
1
 10
0.0
 20
0.0
 30
0.0
 70
0
  0
VERTEX
  5
730
  8
L_GardenRoad
 10
9092.455516706355
 20
10940.128252053953
 30
0.0
 70
0
  0
VERTEX
  5
731
  8
L_GardenRoad
 10
9036.31680569288
 20
10964.29634746575
 30
0.0
 70
0
  0
VERTEX
  5
732
  8
L_GardenRoad
 10
8373.273017302949
 20
11283.769369452211
 30
0.0
 70
0
  0
VERTEX
  5
733
  8
L_GardenRoad
 10
8117.6143849660775
 20
11406.87609475276
 30
0.0
 70
0
  0
SEQEND
  5
72F
  8
L_GardenRoad
  0
POLYLINE
  5
734
  8
L_GardenRoad
 66
1
 10
0.0
 20
0.0
 30
0.0
 70
0
  0
VERTEX
  5
736
  8
L_GardenRoad
 10
8373.273017302949
 20
11283.769369452211
 30
0.0
 70
0
  0
VERTEX
  5
737
  8
L_GardenRoad
 10
8255.687364255515
 20
11108.545474962306
 30
0.0
 70
0
  0
VERTEX
  5
738
  8
L_GardenRoad
 10
8172.23999700104
 20
10925.013896096007
 30
0.0
 70
0
  0
VERTEX
  5
739
  8
L_GardenRoad
 10
8034.172241045396
 20
10645.562363699073
 30
0.0
 70
0
  0
VERTEX
  5
73A
  8
L_GardenRoad
 10
8309.555422904452
 20
10521.700422785485
 30
0.0
 70
0
  0
VERTEX
  5
73B
  8
L_GardenRoad
 10
8412.728610145014
 20
10548.8911572403
 30
0.0
 70
0
  0
VERTEX
  5
73C
  8
L_GardenRoad
 10
8773.07470905187
 20
10783.783956358551
 30
0.0
 70
0
  0
VERTEX
  5
73D
  8
L_GardenRoad
 10
9036.31680569288
 20
10964.29634746575
 30
0.0
 70
0
  0
SEQEND
  5
735
  8
L_GardenRoad
  0
POLYLINE
  5
73E
  8
L_GardenRoad
 66
1
 10
0.0
 20
0.0
 30
0.0
 70
0
  0
VERTEX
  5
740
  8
L_GardenRoad
 10
9632.592648130116
 20
11488.460432950136
 30
0.0
 70
0
  0
VERTEX
  5
741
  8
L_GardenRoad
 10
9493.007384578135
 20
11283.780624947372
 30
0.0
 70
0
  0
VERTEX
  5
742
  8
L_GardenRoad
 10
9131.903981924916
 20
10958.255157401047
 30
0.0
 70
0
  0
SEQEND
  5
73F
  8
L_GardenRoad
  0
POLYLINE
  5
743
  8
L_GardenRoad
 66
1
 10
0.0
 20
0.0
 30
0.0
 70
0
  0
VERTEX
  5
745
  8
L_GardenRoad
 10
7651.067143816785
 20
10398.585290525816
 30
0.0
 70
0
  0
VERTEX
  5
746
  8
L_GardenRoad
 10
7754.240102354955
 20
10455.98680458074
 30
0.0
 70
0
  0
VERTEX
  5
747
  8
L_GardenRoad
 10
8014.450326504329
 20
10377.44089576373
 30
0.0
 70
0
  0
VERTEX
  5
748
  8
L_GardenRoad
 10
8289.833948002437
 20
10215.060066358423
 30
0.0
 70
0
  0
VERTEX
  5
749
  8
L_GardenRoad
 10
8204.110562460453
 20
10037.570453509741
 30
0.0
 70
0
  0
VERTEX
  5
74A
  8
L_GardenRoad
 10
8014.454045403065
 20
9965.0626427713
 30
0.0
 70
0
  0
VERTEX
  5
74B
  8
L_GardenRoad
 10
7912.039272502045
 20
9952.977377779529
 30
0.0
 70
0
  0
VERTEX
  5
74C
  8
L_GardenRoad
 10
7793.693133622331
 20
9959.018505530072
 30
0.0
 70
0
  0
VERTEX
  5
74D
  8
L_GardenRoad
 10
7717.829864632341
 20
10004.334144693385
 30
0.0
 70
0
  0
VERTEX
  5
74E
  8
L_GardenRoad
 10
7619.207491037902
 20
10079.105185756138
 30
0.0
 70
0
  0
VERTEX
  5
74F
  8
L_GardenRoad
 10
7538.79229027039
 20
10145.568398341002
 30
0.0
 70
0
  0
VERTEX
  5
750
  8
L_GardenRoad
 10
7555.481323221018
 20
10239.22220694411
 30
0.0
 70
0
  0
VERTEX
  5
751
  8
L_GardenRoad
 10
7590.377415389817
 20
10335.141975939856
 30
0.0
 70
0
  0
VERTEX
  5
752
  8
L_GardenRoad
 10
7651.067143816785
 20
10398.585290525816
 30
0.0
 70
0
  0
SEQEND
  5
744
  8
L_GardenRoad
  0
POLYLINE
  5
753
  8
L_GardenRoad
 66
1
 10
0.0
 20
0.0
 30
0.0
 70
0
  0
VERTEX
  5
755
  8
L_GardenRoad
 10
8657.767851868854
 20
10310.983048640483
 30
0.0
 70
0
  0
VERTEX
  5
756
  8
L_GardenRoad
 10
9036.32531471474
 20
10127.455846281753
 30
0.0
 70
0
  0
VERTEX
  5
757
  8
L_GardenRoad
 10
9004.463823828692
 20
10037.578202417168
 30
0.0
 70
0
  0
VERTEX
  5
758
  8
L_GardenRoad
 10
8940.740199885262
 20
9919.755175756021
 30
0.0
 70
0
  0
VERTEX
  5
759
  8
L_GardenRoad
 10
8861.843370959386
 20
9863.109003358688
 30
0.0
 70
0
  0
VERTEX
  5
75A
  8
L_GardenRoad
 10
8782.94636075798
 20
9823.834086195764
 30
0.0
 70
0
  0
VERTEX
  5
75B
  8
L_GardenRoad
 10
8726.808061847007
 20
9799.664834785488
 30
0.0
 70
0
  0
VERTEX
  5
75C
  8
L_GardenRoad
 10
8650.945261252742
 20
9790.600831056494
 30
0.0
 70
0
  0
VERTEX
  5
75D
  8
L_GardenRoad
 10
8591.771915422323
 20
9820.811130271079
 30
0.0
 70
0
  0
VERTEX
  5
75E
  8
L_GardenRoad
 10
8535.632914728323
 20
9869.147984740475
 30
0.0
 70
0
  0
VERTEX
  5
75F
  8
L_GardenRoad
 10
8512.8731314857
 20
9965.067277386954
 30
0.0
 70
0
  0
VERTEX
  5
760
  8
L_GardenRoad
 10
8522.734066369212
 20
10094.218823260146
 30
0.0
 70
0
  0
VERTEX
  5
761
  8
L_GardenRoad
 10
8657.767851868854
 20
10310.983048640483
 30
0.0
 70
0
  0
SEQEND
  5
754
  8
L_GardenRoad
  0
POLYLINE
  5
762
  8
L_GardenRoad
 66
1
 10
0.0
 20
0.0
 30
0.0
 70
0
  0
VERTEX
  5
764
  8
L_GardenRoad
 10
-1325.0290065490153
 20
6904.2837056282015
 30
0.0
 70
0
  0
VERTEX
  5
765
  8
L_GardenRoad
 10
-1167.233592796085
 20
6973.768715165185
 30
0.0
 70
0
  0
VERTEX
  5
766
  8
L_GardenRoad
 10
-1007.9208838124177
 20
7093.857112854475
 30
0.0
 70
0
  0
VERTEX
  5
767
  8
L_GardenRoad
 10
-961.6442828378088
 20
7184.489951301069
 30
0.0
 70
0
  0
VERTEX
  5
768
  8
L_GardenRoad
 10
108.78427889107545
 20
6757.0042281361875
 30
0.0
 70
0
  0
VERTEX
  5
769
  8
L_GardenRoad
 10
897.0027552135864
 20
6395.983437356178
 30
0.0
 70
0
  0
SEQEND
  5
763
  8
L_GardenRoad
  0
POLYLINE
  5
76A
  8
L_GardenRoad
 66
1
 10
0.0
 20
0.0
 30
0.0
 70
0
  0
VERTEX
  5
76C
  8
L_GardenRoad
 10
-153.70210114998898
 20
7413.337449602778
 30
0.0
 70
0
  0
VERTEX
  5
76D
  8
L_GardenRoad
 10
276.44169539081224
 20
7211.6793389202885
 30
0.0
 70
0
  0
SEQEND
  5
76B
  8
L_GardenRoad
  0
POLYLINE
  5
76E
  8
L_GardenRoad
 66
1
 10
0.0
 20
0.0
 30
0.0
 70
0
  0
VERTEX
  5
770
  8
L_GardenRoad
 10
-1356.8950246355123
 20
4611.268114169752
 30
0.0
 70
0
  0
VERTEX
  5
771
  8
L_GardenRoad
 10
-1064.820826995008
 20
4920.93090839342
 30
0.0
 70
0
  0
VERTEX
  5
772
  8
L_GardenRoad
 10
-244.73827127862222
 20
5745.691260578188
 30
0.0
 70
0
  0
VERTEX
  5
773
  8
L_GardenRoad
 10
-109.70171943795573
 20
5694.332515189752
 30
0.0
 70
0
  0
VERTEX
  5
774
  8
L_GardenRoad
 10
173.26820694403344
 20
5465.484080971846
 30
0.0
 70
0
  0
VERTEX
  5
775
  8
L_GardenRoad
 10
233.95882479018994
 20
5423.18866653191
 30
0.0
 70
0
  0
VERTEX
  5
776
  8
L_GardenRoad
 10
-67.97696202815719
 20
5381.648483495985
 30
0.0
 70
0
  0
VERTEX
  5
777
  8
L_GardenRoad
 10
-482.94909838185777
 20
5248.720103644354
 30
0.0
 70
0
  0
VERTEX
  5
778
  8
L_GardenRoad
 10
-801.5750145694891
 20
5080.293842916824
 30
0.0
 70
0
  0
VERTEX
  5
779
  8
L_GardenRoad
 10
-1064.820826995008
 20
4920.93090839342
 30
0.0
 70
0
  0
SEQEND
  5
76F
  8
L_GardenRoad
  0
POLYLINE
  5
77A
  8
L_GardenRoad
 66
1
 10
0.0
 20
0.0
 30
0.0
 70
0
  0
VERTEX
  5
77C
  8
L_GardenRoad
 10
-1155.0986882544873
 20
4514.592469101683
 30
0.0
 70
0
  0
VERTEX
  5
77D
  8
L_GardenRoad
 10
-875.1627213103504
 20
4761.5674622566
 30
0.0
 70
0
  0
VERTEX
  5
77E
  8
L_GardenRoad
 10
-683.9870653884924
 20
4881.656183625466
 30
0.0
 70
0
  0
VERTEX
  5
77F
  8
L_GardenRoad
 10
-396.4650560437575
 20
5037.998123137503
 30
0.0
 70
0
  0
VERTEX
  5
780
  8
L_GardenRoad
 10
-16.389945347150164
 20
5158.842163079394
 30
0.0
 70
0
  0
VERTEX
  5
781
  8
L_GardenRoad
 10
443.34154114481396
 20
5198.1166116823215
 30
0.0
 70
0
  0
VERTEX
  5
782
  8
L_GardenRoad
 10
-668.8148358867663
 20
4306.890966327859
 30
0.0
 70
0
  0
SEQEND
  5
77B
  8
L_GardenRoad
  0
POLYLINE
  5
783
  8
L_GardenRoad
 66
1
 10
0.0
 20
0.0
 30
0.0
 70
0
  0
VERTEX
  5
785
  8
L_GardenRoad
 10
-477.63922212973273
 20
4219.278768410035
 30
0.0
 70
0
  0
VERTEX
  5
786
  8
L_GardenRoad
 10
1309.701010520839
 20
4658.850443297056
 30
0.0
 70
0
  0
VERTEX
  5
787
  8
L_GardenRoad
 10
1201.9759364115578
 20
4029.705021713211
 30
0.0
 70
0
  0
VERTEX
  5
788
  8
L_GardenRoad
 10
1204.2520006263649
 20
3909.61602148848
 30
0.0
 70
0
  0
VERTEX
  5
789
  8
L_GardenRoad
 10
1253.5634213305752
 20
3756.2948861506934
 30
0.0
 70
0
  0
VERTEX
  5
78A
  8
L_GardenRoad
 10
1305.150700625909
 20
3644.513967767562
 30
0.0
 70
0
  0
VERTEX
  5
78B
  8
L_GardenRoad
 10
1361.2896639920707
 20
3620.3451869708174
 30
0.0
 70
0
  0
VERTEX
  5
78C
  8
L_GardenRoad
 10
1407.5663288571147
 20
3632.4296918714585
 30
0.0
 70
0
  0
VERTEX
  5
78D
  8
L_GardenRoad
 10
1545.6376550316622
 20
3683.788758177819
 30
0.0
 70
0
  0
VERTEX
  5
78E
  8
L_GardenRoad
 10
1751.9858537541961
 20
3825.0259267827096
 30
0.0
 70
0
  0
VERTEX
  5
78F
  8
L_GardenRoad
 10
1923.4368079051674
 20
3976.0816428696876
 30
0.0
 70
0
  0
VERTEX
  5
790
  8
L_GardenRoad
 10
2050.8869561119
 20
4123.360881018677
 30
0.0
 70
0
  0
VERTEX
  5
791
  8
L_GardenRoad
 10
2166.1986813178837
 20
4370.336575420329
 30
0.0
 70
0
  0
VERTEX
  5
792
  8
L_GardenRoad
 10
2198.8195808335554
 20
4508.552227982502
 30
0.0
 70
0
  0
VERTEX
  5
793
  8
L_GardenRoad
 10
2237.5092397540134
 20
4764.59095217115
 30
0.0
 70
0
  0
VERTEX
  5
794
  8
L_GardenRoad
 10
2262.5438369331987
 20
4881.658800466131
 30
0.0
 70
0
  0
VERTEX
  5
795
  8
L_GardenRoad
 10
2237.5092397540134
 20
4764.59095217115
 30
0.0
 70
0
  0
VERTEX
  5
796
  8
L_GardenRoad
 10
2198.8195808335554
 20
4508.552227982502
 30
0.0
 70
0
  0
VERTEX
  5
797
  8
L_GardenRoad
 10
2166.1986813178837
 20
4370.336575420329
 30
0.0
 70
0
  0
VERTEX
  5
798
  8
L_GardenRoad
 10
2050.8869561119
 20
4123.360881018677
 30
0.0
 70
0
  0
VERTEX
  5
799
  8
L_GardenRoad
 10
1923.4368079051674
 20
3976.0816428696876
 30
0.0
 70
0
  0
VERTEX
  5
79A
  8
L_GardenRoad
 10
1751.9858537541961
 20
3825.0259267827096
 30
0.0
 70
0
  0
VERTEX
  5
79B
  8
L_GardenRoad
 10
1545.6376550316622
 20
3683.788758177819
 30
0.0
 70
0
  0
VERTEX
  5
79C
  8
L_GardenRoad
 10
1407.5663288571147
 20
3632.4296918714585
 30
0.0
 70
0
  0
VERTEX
  5
79D
  8
L_GardenRoad
 10
1361.2896639920707
 20
3620.3451869708174
 30
0.0
 70
0
  0
VERTEX
  5
79E
  8
L_GardenRoad
 10
1305.150700625909
 20
3644.513967767562
 30
0.0
 70
0
  0
VERTEX
  5
79F
  8
L_GardenRoad
 10
1253.5634213305752
 20
3756.2948861506934
 30
0.0
 70
0
  0
VERTEX
  5
7A0
  8
L_GardenRoad
 10
1204.2520006263649
 20
3909.61602148848
 30
0.0
 70
0
  0
VERTEX
  5
7A1
  8
L_GardenRoad
 10
1201.9759364115578
 20
4029.705021713211
 30
0.0
 70
0
  0
VERTEX
  5
7A2
  8
L_GardenRoad
 10
1309.701010520839
 20
4658.850443297056
 30
0.0
 70
0
  0
VERTEX
  5
7A3
  8
L_GardenRoad
 10
-477.63922212973273
 20
4219.278768410035
 30
0.0
 70
0
  0
SEQEND
  5
784
  8
L_GardenRoad
  0
POLYLINE
  5
7A4
  8
L_GardenRoad
 66
1
 10
0.0
 20
0.0
 30
0.0
 70
0
  0
VERTEX
  5
7A6
  8
L_GardenRoad
 10
-477.63922212973273
 20
4219.278768410035
 30
0.0
 70
0
  0
VERTEX
  5
7A7
  8
L_GardenRoad
 10
612.5167171294995
 20
5113.525828121837
 30
0.0
 70
0
  0
VERTEX
  5
7A8
  8
L_GardenRoad
 10
708.1045115722353
 20
5050.082730360828
 30
0.0
 70
0
  0
SEQEND
  5
7A5
  8
L_GardenRoad
  0
POLYLINE
  5
7A9
  8
L_GardenRoad
 66
1
 10
0.0
 20
0.0
 30
0.0
 70
0
  0
VERTEX
  5
7AB
  8
L_GardenRoad
 10
862.8654327248682
 20
5254.762596712306
 30
0.0
 70
0
  0
VERTEX
  5
7AC
  8
L_GardenRoad
 10
757.4154342912497
 20
5306.12124438081
 30
0.0
 70
0
  0
VERTEX
  5
7AD
  8
L_GardenRoad
 10
523.7564530508688
 20
5480.58972824268
 30
0.0
 70
0
  0
VERTEX
  5
7AE
  8
L_GardenRoad
 10
342.4431913709669
 20
5679.227068173968
 30
0.0
 70
0
  0
SEQEND
  5
7AA
  8
L_GardenRoad
  0
POLYLINE
  5
7AF
  8
L_GardenRoad
 66
1
 10
0.0
 20
0.0
 30
0.0
 70
0
  0
VERTEX
  5
7B1
  8
L_GardenRoad
 10
723.2765113493601
 20
5859.738077323045
 30
0.0
 70
0
  0
VERTEX
  5
7B2
  8
L_GardenRoad
 10
1523.6341491343603
 20
5501.738592912766
 30
0.0
 70
0
  0
VERTEX
  5
7B3
  8
L_GardenRoad
 10
1854.398370492861
 20
5297.059548824955
 30
0.0
 70
0
  0
VERTEX
  5
7B4
  8
L_GardenRoad
 10
1962.8831561713216
 20
5158.844330620802
 30
0.0
 70
0
  0
SEQEND
  5
7B0
  8
L_GardenRoad
  0
POLYLINE
  5
7B5
  8
L_GardenRoad
 66
1
 10
0.0
 20
0.0
 30
0.0
 70
0
  0
VERTEX
  5
7B7
  8
L_GardenRoad
 10
1211.8389473468637
 20
3464.0026086678276
 30
0.0
 70
0
  0
VERTEX
  5
7B8
  8
L_GardenRoad
 10
1280.1160599756229
 20
3445.876051925974
 30
0.0
 70
0
  0
VERTEX
  5
7B9
  8
L_GardenRoad
 10
1478.8782845076125
 20
3424.7285991672948
 30
0.0
 70
0
  0
VERTEX
  5
7BA
  8
L_GardenRoad
 10
1658.6744737859033
 20
3503.2777425848926
 30
0.0
 70
0
  0
VERTEX
  5
7BB
  8
L_GardenRoad
 10
2016.7507672987288
 20
3096.939288493542
 30
0.0
 70
0
  0
SEQEND
  5
7B6
  8
L_GardenRoad
  0
POLYLINE
  5
7BC
  8
L_GardenRoad
 66
1
 10
0.0
 20
0.0
 30
0.0
 70
0
  0
VERTEX
  5
7BE
  8
L_GardenRoad
 10
2664.625545105772
 20
2822.775225734057
 30
0.0
 70
0
  0
VERTEX
  5
7BF
  8
L_GardenRoad
 10
1883.9884861443018
 20
3674.7260868388666
 30
0.0
 70
0
  0
VERTEX
  5
7C0
  8
L_GardenRoad
 10
2066.060303132431
 20
3834.0899239262294
 30
0.0
 70
0
  0
VERTEX
  5
7C1
  8
L_GardenRoad
 10
2217.786656084524
 20
4011.5803349626512
 30
0.0
 70
0
  0
VERTEX
  5
7C2
  8
L_GardenRoad
 10
2352.8227037021015
 20
4303.872723194774
 30
0.0
 70
0
  0
VERTEX
  5
7C3
  8
L_GardenRoad
 10
2394.5470965042077
 20
4472.299470893302
 30
0.0
 70
0
  0
VERTEX
  5
7C4
  8
L_GardenRoad
 10
2436.2712252653996
 20
4731.359327042847
 30
0.0
 70
0
  0
VERTEX
  5
7C5
  8
L_GardenRoad
 10
2459.02983093221
 20
4872.596010447028
 30
0.0
 70
0
  0
VERTEX
  5
7C6
  8
L_GardenRoad
 10
2876.278051863134
 20
4866.555054910163
 30
0.0
 70
0
  0
VERTEX
  5
7C7
  8
L_GardenRoad
 10
3352.699796558924
 20
4824.261268144411
 30
0.0
 70
0
  0
VERTEX
  5
7C8
  8
L_GardenRoad
 10
3963.399856761827
 20
4737.4070340357075
 30
0.0
 70
0
  0
VERTEX
  5
7C9
  8
L_GardenRoad
 10
4546.030929928863
 20
4587.109866307157
 30
0.0
 70
0
  0
VERTEX
  5
7CA
  8
L_GardenRoad
 10
4786.517909105992
 20
4547.836764469013
 30
0.0
 70
0
  0
VERTEX
  5
7CB
  8
L_GardenRoad
 10
5132.456082224973
 20
4312.9477464040465
 30
0.0
 70
0
  0
VERTEX
  5
7CC
  8
L_GardenRoad
 10
6001.854647856356
 20
3647.5543840490823
 30
0.0
 70
0
  0
VERTEX
  5
7CD
  8
L_GardenRoad
 10
6713.4593803384905
 20
2865.092139338139
 30
0.0
 70
0
  0
VERTEX
  5
7CE
  8
L_GardenRoad
 10
7015.39952706392
 20
2422.501641867157
 30
0.0
 70
0
  0
VERTEX
  5
7CF
  8
L_GardenRoad
 10
7150.440412025361
 20
1947.4326967121954
 30
0.0
 70
0
  0
VERTEX
  5
7D0
  8
L_GardenRoad
 10
7185.340452115099
 20
1600.760101432185
 30
0.0
 70
0
  0
VERTEX
  5
7D1
  8
L_GardenRoad
 10
7170.169312507189
 20
1405.142762672222
 30
0.0
 70
0
  0
VERTEX
  5
7D2
  8
L_GardenRoad
 10
7060.168398884659
 20
1239.7357855826267
 30
0.0
 70
0
  0
VERTEX
  5
7D3
  8
L_GardenRoad
 10
6843.958124847965
 20
1104.539134261946
 30
0.0
 70
0
  0
VERTEX
  5
7D4
  8
L_GardenRoad
 10
6580.711840217016
 20
1035.0514602281273
 30
0.0
 70
0
  0
SEQEND
  5
7BD
  8
L_GardenRoad
  0
POLYLINE
  5
7D5
  8
L_RailwayTrack
 66
1
 10
0.0
 20
0.0
 30
0.0
 70
0
  0
VERTEX
  5
7D7
  8
L_RailwayTrack
 10
25524.816730850234
 20
7413.703988644183
 30
0.0
 70
0
  0
VERTEX
  5
7D8
  8
L_RailwayTrack
 10
25139.42236160509
 20
7762.25181746771
 30
0.0
 70
0
  0
VERTEX
  5
7D9
  8
L_RailwayTrack
 10
24468.772508176942
 20
8502.400878926788
 30
0.0
 70
0
  0
VERTEX
  5
7DA
  8
L_RailwayTrack
 10
20815.875517612047
 20
12496.937453484845
 30
0.0
 70
0
  0
VERTEX
  5
7DB
  8
L_RailwayTrack
 10
20790.840151094602
 20
12526.392380097193
 30
0.0
 70
0
  0
VERTEX
  5
7DC
  8
L_RailwayTrack
 10
19605.07874678376
 20
13799.748975877466
 30
0.0
 70
0
  0
VERTEX
  5
7DD
  8
L_RailwayTrack
 10
17894.34763159768
 20
15323.088093096729
 30
0.0
 70
0
  0
VERTEX
  5
7DE
  8
L_RailwayTrack
 10
16344.454931188982
 20
16601.724672601104
 30
0.0
 70
0
  0
VERTEX
  5
7DF
  8
L_RailwayTrack
 10
14859.05261579025
 20
17697.589050659182
 30
0.0
 70
0
  0
VERTEX
  5
7E0
  8
L_RailwayTrack
 10
13221.92950843447
 20
18807.80232248991
 30
0.0
 70
0
  0
VERTEX
  5
7E1
  8
L_RailwayTrack
 10
11739.19244580993
 20
19711.0770887114
 30
0.0
 70
0
  0
SEQEND
  5
7D6
  8
L_RailwayTrack
  0
POLYLINE
  5
7E2
  8
L_RailwayTrack
 66
1
 10
0.0
 20
0.0
 30
0.0
 70
0
  0
VERTEX
  5
7E4
  8
L_RailwayTrack
 10
11739.17956563765
 20
20686.12172538456
 30
0.0
 70
0
  0
VERTEX
  5
7E5
  8
L_RailwayTrack
 10
11903.422194780009
 20
20575.10029070956
 30
0.0
 70
0
  0
VERTEX
  5
7E6
  8
L_RailwayTrack
 10
14429.654883516245
 20
18781.3868628595
 30
0.0
 70
0
  0
VERTEX
  5
7E7
  8
L_RailwayTrack
 10
16447.616697165315
 20
17194.610276051677
 30
0.0
 70
0
  0
VERTEX
  5
7E8
  8
L_RailwayTrack
 10
18961.73801412344
 20
15033.842847676458
 30
0.0
 70
0
  0
VERTEX
  5
7E9
  8
L_RailwayTrack
 10
19900.179066277247
 20
14022.559706012242
 30
0.0
 70
0
  0
VERTEX
  5
7EA
  8
L_RailwayTrack
 10
20653.514684149515
 20
13131.359877980782
 30
0.0
 70
0
  0
VERTEX
  5
7EB
  8
L_RailwayTrack
 10
21105.670173182763
 20
12526.399801217976
 30
0.0
 70
0
  0
VERTEX
  5
7EC
  8
L_RailwayTrack
 10
22222.407676569987
 20
10958.486081711057
 30
0.0
 70
0
  0
SEQEND
  5
7E3
  8
L_RailwayTrack
  0
POLYLINE
  5
7ED
  8
L_Elevator
 66
1
 10
0.0
 20
0.0
 30
0.0
 70
0
  0
VERTEX
  5
7EF
  8
L_Elevator
 10
5596.691038336094
 20
12060.165375009907
 30
0.0
 70
0
  0
VERTEX
  5
7F0
  8
L_Elevator
 10
5458.623116959222
 20
11704.43230616888
 30
0.0
 70
0
  0
VERTEX
  5
7F1
  8
L_Elevator
 10
5188.551212637065
 20
11807.147434530973
 30
0.0
 70
0
  0
VERTEX
  5
7F2
  8
L_Elevator
 10
5331.17097365985
 20
12165.146257278167
 30
0.0
 70
0
  0
VERTEX
  5
7F3
  8
L_Elevator
 10
5596.691038336094
 20
12060.165375009907
 30
0.0
 70
0
  0
SEQEND
  5
7EE
  8
L_Elevator
  0
POLYLINE
  5
7F4
  8
L_Elevator
 66
1
 10
0.0
 20
0.0
 30
0.0
 70
0
  0
VERTEX
  5
7F6
  8
L_Elevator
 10
5596.691038336094
 20
12060.165375009907
 30
0.0
 70
0
  0
VERTEX
  5
7F7
  8
L_Elevator
 10
5458.623116959222
 20
11704.43230616888
 30
0.0
 70
0
  0
VERTEX
  5
7F8
  8
L_Elevator
 10
5188.551212637065
 20
11807.147434530973
 30
0.0
 70
0
  0
VERTEX
  5
7F9
  8
L_Elevator
 10
5331.17097365985
 20
12165.146257278167
 30
0.0
 70
0
  0
VERTEX
  5
7FA
  8
L_Elevator
 10
5596.691038336094
 20
12060.165375009907
 30
0.0
 70
0
  0
SEQEND
  5
7F5
  8
L_Elevator
  0
POLYLINE
  5
7FB
  8
L_Elevator
 66
1
 10
0.0
 20
0.0
 30
0.0
 70
0
  0
VERTEX
  5
7FD
  8
L_Elevator
 10
5596.691038336094
 20
12060.165375009907
 30
0.0
 70
0
  0
VERTEX
  5
7FE
  8
L_Elevator
 10
5458.623116959222
 20
11704.43230616888
 30
0.0
 70
0
  0
VERTEX
  5
7FF
  8
L_Elevator
 10
5188.551212637065
 20
11807.147434530973
 30
0.0
 70
0
  0
VERTEX
  5
800
  8
L_Elevator
 10
5331.17097365985
 20
12165.146257278167
 30
0.0
 70
0
  0
VERTEX
  5
801
  8
L_Elevator
 10
5596.691038336094
 20
12060.165375009907
 30
0.0
 70
0
  0
SEQEND
  5
7FC
  8
L_Elevator
  0
POLYLINE
  5
802
  8
L_Elevator
 66
1
 10
0.0
 20
0.0
 30
0.0
 70
0
  0
VERTEX
  5
804
  8
L_Elevator
 10
9667.502483851347
 20
10295.888030890745
 30
0.0
 70
0
  0
VERTEX
  5
805
  8
L_Elevator
 10
9539.296916507245
 20
10049.66812850811
 30
0.0
 70
0
  0
VERTEX
  5
806
  8
L_Elevator
 10
9080.324539292636
 20
10248.299736882092
 30
0.0
 70
0
  0
VERTEX
  5
807
  8
L_Elevator
 10
9175.90937560784
 20
10476.392670824547
 30
0.0
 70
0
  0
VERTEX
  5
808
  8
L_Elevator
 10
9191.08159775934
 20
10509.624762813371
 30
0.0
 70
0
  0
VERTEX
  5
809
  8
L_Elevator
 10
9667.502483851347
 20
10295.888030890745
 30
0.0
 70
0
  0
SEQEND
  5
803
  8
L_Elevator
  0
POLYLINE
  5
80A
  8
L_Elevator
 66
1
 10
0.0
 20
0.0
 30
0.0
 70
0
  0
VERTEX
  5
80C
  8
L_Elevator
 10
9667.502483851347
 20
10295.888030890745
 30
0.0
 70
0
  0
VERTEX
  5
80D
  8
L_Elevator
 10
9539.296916507245
 20
10049.66812850811
 30
0.0
 70
0
  0
VERTEX
  5
80E
  8
L_Elevator
 10
9080.324539292636
 20
10248.299736882092
 30
0.0
 70
0
  0
VERTEX
  5
80F
  8
L_Elevator
 10
9175.90937560784
 20
10476.392670824547
 30
0.0
 70
0
  0
VERTEX
  5
810
  8
L_Elevator
 10
9191.08159775934
 20
10509.624762813371
 30
0.0
 70
0
  0
VERTEX
  5
811
  8
L_Elevator
 10
9667.502483851347
 20
10295.888030890745
 30
0.0
 70
0
  0
SEQEND
  5
80B
  8
L_Elevator
  0
POLYLINE
  5
812
  8
L_Elevator
 66
1
 10
0.0
 20
0.0
 30
0.0
 70
0
  0
VERTEX
  5
814
  8
L_Elevator
 10
9667.502483851347
 20
10295.888030890745
 30
0.0
 70
0
  0
VERTEX
  5
815
  8
L_Elevator
 10
9539.296916507245
 20
10049.66812850811
 30
0.0
 70
0
  0
VERTEX
  5
816
  8
L_Elevator
 10
9080.324539292636
 20
10248.299736882092
 30
0.0
 70
0
  0
VERTEX
  5
817
  8
L_Elevator
 10
9175.90937560784
 20
10476.392670824547
 30
0.0
 70
0
  0
VERTEX
  5
818
  8
L_Elevator
 10
9191.08159775934
 20
10509.624762813371
 30
0.0
 70
0
  0
VERTEX
  5
819
  8
L_Elevator
 10
9667.502483851347
 20
10295.888030890745
 30
0.0
 70
0
  0
SEQEND
  5
813
  8
L_Elevator
  0
POLYLINE
  5
81A
  8
L_Admin_Town
 66
1
 10
0.0
 20
0.0
 30
0.0
 70
0
  0
VERTEX
  5
81C
  8
L_Admin_Town
 10
6693.562356340221
 20
25769.72801272912
 30
0.0
 70
0
  0
VERTEX
  5
81D
  8
L_Admin_Town
 10
6276.334000339205
 20
24349.08281616812
 30
0.0
 70
0
  0
VERTEX
  5
81E
  8
L_Admin_Town
 10
5406.975718553815
 20
21688.293639595762
 30
0.0
 70
0
  0
VERTEX
  5
81F
  8
L_Admin_Town
 10
3320.798618149435
 20
15150.713204341284
 30
0.0
 70
0
  0
VERTEX
  5
820
  8
L_Admin_Town
 10
1629.0658287856813
 20
15455.081175998239
 30
0.0
 70
0
  0
VERTEX
  5
821
  8
L_Admin_Town
 10
173.26683035015608
 20
12526.149197671351
 30
0.0
 70
0
  0
VERTEX
  5
822
  8
L_Admin_Town
 10
-128.6666289807718
 20
11912.114841786992
 30
0.0
 70
0
  0
VERTEX
  5
823
  8
L_Admin_Town
 10
-2415.93951628568
 20
7413.340720175631
 30
0.0
 70
0
  0
SEQEND
  5
81B
  8
L_Admin_Town
  0
POLYLINE
  5
824
  8
L_Admin_Town
 66
1
 10
0.0
 20
0.0
 30
0.0
 70
0
  0
VERTEX
  5
826
  8
L_Admin_Town
 10
32426.840879817893
 20
7413.929025257428
 30
0.0
 70
0
  0
VERTEX
  5
827
  8
L_Admin_Town
 10
25478.393663604624
 20
12526.514407225988
 30
0.0
 70
0
  0
VERTEX
  5
828
  8
L_Admin_Town
 10
19661.909067379318
 20
16809.49003478453
 30
0.0
 70
0
  0
VERTEX
  5
829
  8
L_Admin_Town
 10
19251.48370363346
 20
17288.319524005132
 30
0.0
 70
0
  0
VERTEX
  5
82A
  8
L_Admin_Town
 10
19030.72133938533
 20
17438.61259705606
 30
0.0
 70
0
  0
VERTEX
  5
82B
  8
L_Admin_Town
 10
11739.156459113554
 20
22435.308360990588
 30
0.0
 70
0
  0
SEQEND
  5
825
  8
L_Admin_Town
  0
POLYLINE
  5
82C
  8
L_Admin_Town
 66
1
 10
0.0
 20
0.0
 30
0.0
 70
0
  0
VERTEX
  5
82E
  8
L_Admin_Town
 10
11739.535441531152
 20
-6254.8800478349885
 30
0.0
 70
0
  0
VERTEX
  5
82F
  8
L_Admin_Town
 10
11785.433037895795
 20
-6233.731450336863
 30
0.0
 70
0
  0
VERTEX
  5
830
  8
L_Admin_Town
 10
14197.139789779641
 20
-5107.566456124416
 30
0.0
 70
0
  0
VERTEX
  5
831
  8
L_Admin_Town
 10
15014.17433662541
 20
-3777.4981945607956
 30
0.0
 70
0
  0
VERTEX
  5
832
  8
L_Admin_Town
 10
16617.887175954314
 20
-936.0984742898818
 30
0.0
 70
0
  0
VERTEX
  5
833
  8
L_Admin_Town
 10
17511.532381904006
 20
607.7114790494466
 30
0.0
 70
0
  0
VERTEX
  5
834
  8
L_Admin_Town
 10
17857.45802973705
 20
1239.887149722295
 30
0.0
 70
0
  0
VERTEX
  5
835
  8
L_Admin_Town
 10
19025.714468414993
 20
3262.546405140226
 30
0.0
 70
0
  0
VERTEX
  5
836
  8
L_Admin_Town
 10
19630.322265698713
 20
4343.360785163237
 30
0.0
 70
0
  0
VERTEX
  5
837
  8
L_Admin_Town
 10
20602.093877942083
 20
5980.820598441459
 30
0.0
 70
0
  0
SEQEND
  5
82D
  8
L_Admin_Town
  0
POLYLINE
  5
838
  8
L_Admin_TownBlock
 66
1
 10
0.0
 20
0.0
 30
0.0
 70
0
  0
VERTEX
  5
83A
  8
L_Admin_TownBlock
 10
11739.103940496647
 20
26410.994482219787
 30
0.0
 70
0
  0
VERTEX
  5
83B
  8
L_Admin_TownBlock
 10
12725.691073117916
 20
25803.02528950724
 30
0.0
 70
0
  0
VERTEX
  5
83C
  8
L_Admin_TownBlock
 10
13675.486226914893
 20
25225.266567302406
 30
0.0
 70
0
  0
VERTEX
  5
83D
  8
L_Admin_TownBlock
 10
14997.009543548802
 20
24352.208235478618
 30
0.0
 70
0
  0
VERTEX
  5
83E
  8
L_Admin_TownBlock
 10
16327.638918887706
 20
23476.130144658986
 30
0.0
 70
0
  0
VERTEX
  5
83F
  8
L_Admin_TownBlock
 10
20019.885770231747
 20
20951.366850150993
 30
0.0
 70
0
  0
VERTEX
  5
840
  8
L_Admin_TownBlock
 10
21129.76287524014
 20
20237.66925011586
 30
0.0
 70
0
  0
VERTEX
  5
841
  8
L_Admin_TownBlock
 10
24761.34000529024
 20
17965.928891416468
 30
0.0
 70
0
  0
VERTEX
  5
842
  8
L_Admin_TownBlock
 10
27481.04983669089
 20
16340.677161861078
 30
0.0
 70
0
  0
VERTEX
  5
843
  8
L_Admin_TownBlock
 10
33120.777754635936
 20
13059.98651083006
 30
0.0
 70
0
  0
VERTEX
  5
844
  8
L_Admin_TownBlock
 10
33953.010963256325
 20
12526.797777469881
 30
0.0
 70
0
  0
VERTEX
  5
845
  8
L_Admin_TownBlock
 10
35284.43260219939
 20
11720.22140693305
 30
0.0
 70
0
  0
VERTEX
  5
846
  8
L_Admin_TownBlock
 10
36597.64958739648
 20
10913.645554311863
 30
0.0
 70
0
  0
SEQEND
  5
839
  8
L_Admin_TownBlock
  0
POLYLINE
  5
847
  8
L_Geometry
 66
1
 10
0.0
 20
0.0
 30
0.0
 70
0
  0
VERTEX
  5
849
  8
L_Geometry
 10
1808.1077265905592
 20
12201.385058119862
 30
0.0
 70
0
  0
VERTEX
  5
84A
  8
L_Geometry
 10
1643.4852632050574
 20
12439.294698585845
 30
0.0
 70
0
  0
VERTEX
  5
84B
  8
L_Geometry
 10
1567.6224465111034
 20
12526.150563484442
 30
0.0
 70
0
  0
VERTEX
  5
84C
  8
L_Geometry
 10
1503.8976929726646
 20
12598.65632656542
 30
0.0
 70
0
  0
VERTEX
  5
84D
  8
L_Geometry
 10
1147.3427848630552
 20
12950.611304098205
 30
0.0
 70
0
  0
SEQEND
  5
848
  8
L_Geometry
  0
POLYLINE
  5
84E
  8
L_Geometry
 66
1
 10
0.0
 20
0.0
 30
0.0
 70
0
  0
VERTEX
  5
850
  8
L_Geometry
 10
2115.3510865718195
 20
12415.127068689148
 30
0.0
 70
0
  0
VERTEX
  5
851
  8
L_Geometry
 10
2050.8675648839253
 20
12526.151547198431
 30
0.0
 70
0
  0
VERTEX
  5
852
  8
L_Geometry
 10
1943.142223594554
 20
12695.331666577353
 30
0.0
 70
0
  0
VERTEX
  5
853
  8
L_Geometry
 10
1770.9336676488685
 20
12875.840675583515
 30
0.0
 70
0
  0
VERTEX
  5
854
  8
L_Geometry
 10
1333.9642646683499
 20
13326.735539697549
 30
0.0
 70
0
  0
SEQEND
  5
84F
  8
L_Geometry
  0
POLYLINE
  5
855
  8
L_Geometry
 66
1
 10
0.0
 20
0.0
 30
0.0
 70
0
  0
VERTEX
  5
857
  8
L_Geometry
 10
1597.2089463444077
 20
12490.652946664797
 30
0.0
 70
0
  0
VERTEX
  5
858
  8
L_Geometry
 10
1896.1072779716562
 20
12745.93461350292
 30
0.0
 70
0
  0
SEQEND
  5
856
  8
L_Geometry
  0
POLYLINE
  5
859
  8
L_Geometry
 66
1
 10
0.0
 20
0.0
 30
0.0
 70
0
  0
VERTEX
  5
85B
  8
L_Geometry
 10
1653.3474375395883
 20
12424.189324647576
 30
0.0
 70
0
  0
VERTEX
  5
85C
  8
L_Geometry
 10
1957.55617858647
 20
12671.163077042593
 30
0.0
 70
0
  0
SEQEND
  5
85A
  8
L_Geometry
  0
POLYLINE
  5
85D
  8
L_Geometry
 66
1
 10
0.0
 20
0.0
 30
0.0
 70
0
  0
VERTEX
  5
85F
  8
L_Geometry
 10
1695.0720183765825
 20
12363.767830806413
 30
0.0
 70
0
  0
VERTEX
  5
860
  8
L_Geometry
 10
2012.1774804217698
 20
12583.55194207688
 30
0.0
 70
0
  0
SEQEND
  5
85E
  8
L_Geometry
  0
POLYLINE
  5
861
  8
L_Geometry
 66
1
 10
0.0
 20
0.0
 30
0.0
 70
0
  0
VERTEX
  5
863
  8
L_Geometry
 10
1751.969179967989
 20
12282.954081904289
 30
0.0
 70
0
  0
VERTEX
  5
864
  8
L_Geometry
 10
2066.040164437894
 20
12496.69606974307
 30
0.0
 70
0
  0
SEQEND
  5
862
  8
L_Geometry
  0
POLYLINE
  5
865
  8
L_Geometry
 66
1
 10
0.0
 20
0.0
 30
0.0
 70
0
  0
VERTEX
  5
867
  8
L_Geometry
 10
7096.495959902844
 20
12131.92672676184
 30
0.0
 70
0
  0
VERTEX
  5
868
  8
L_Geometry
 10
6210.416990450694
 20
12526.170880803891
 30
0.0
 70
0
  0
VERTEX
  5
869
  8
L_Geometry
 10
6153.519810072467
 20
12553.360187910384
 30
0.0
 70
0
  0
SEQEND
  5
866
  8
L_Geometry
  0
POLYLINE
  5
86A
  8
L_Geometry
 66
1
 10
0.0
 20
0.0
 30
0.0
 70
0
  0
VERTEX
  5
86C
  8
L_Geometry
 10
7226.977900430072
 20
12363.795599695612
 30
0.0
 70
0
  0
VERTEX
  5
86D
  8
L_Geometry
 10
6836.283901823807
 20
12526.175474915342
 30
0.0
 70
0
  0
VERTEX
  5
86E
  8
L_Geometry
 10
6264.27754348597
 20
12800.334060614216
 30
0.0
 70
0
  0
SEQEND
  5
86B
  8
L_Geometry
  0
POLYLINE
  5
86F
  8
L_Geometry
 66
1
 10
0.0
 20
0.0
 30
0.0
 70
0
  0
VERTEX
  5
871
  8
L_Geometry
 10
6271.865949671126
 20
12496.715799680751
 30
0.0
 70
0
  0
VERTEX
  5
872
  8
L_Geometry
 10
6384.899541625089
 20
12742.9344497612
 30
0.0
 70
0
  0
SEQEND
  5
870
  8
L_Geometry
  0
POLYLINE
  5
873
  8
L_Geometry
 66
1
 10
0.0
 20
0.0
 30
0.0
 70
0
  0
VERTEX
  5
875
  8
L_Geometry
 10
6365.17730070667
 20
12457.442444549708
 30
0.0
 70
0
  0
VERTEX
  5
876
  8
L_Geometry
 10
6470.62462450868
 20
12701.39525376741
 30
0.0
 70
0
  0
SEQEND
  5
874
  8
L_Geometry
  0
POLYLINE
  5
877
  8
L_Geometry
 66
1
 10
0.0
 20
0.0
 30
0.0
 70
0
  0
VERTEX
  5
879
  8
L_Geometry
 10
6455.454153543856
 20
12418.169075893662
 30
0.0
 70
0
  0
VERTEX
  5
87A
  8
L_Geometry
 10
6558.625600138099
 20
12659.10081192405
 30
0.0
 70
0
  0
SEQEND
  5
878
  8
L_Geometry
  0
POLYLINE
  5
87B
  8
L_Geometry
 66
1
 10
0.0
 20
0.0
 30
0.0
 70
0
  0
VERTEX
  5
87D
  8
L_Geometry
 10
6546.489663317357
 20
12375.874641343893
 30
0.0
 70
0
  0
VERTEX
  5
87E
  8
L_Geometry
 10
6649.661090141738
 20
12616.806399396672
 30
0.0
 70
0
  0
SEQEND
  5
87C
  8
L_Geometry
  0
POLYLINE
  5
87F
  8
L_Geometry
 66
1
 10
0.0
 20
0.0
 30
0.0
 70
0
  0
VERTEX
  5
881
  8
L_Geometry
 10
6642.076941973189
 20
12333.580248148064
 30
0.0
 70
0
  0
VERTEX
  5
882
  8
L_Geometry
 10
6745.248370723923
 20
12571.490950503983
 30
0.0
 70
0
  0
SEQEND
  5
880
  8
L_Geometry
  0
POLYLINE
  5
883
  8
L_Geometry
 66
1
 10
0.0
 20
0.0
 30
0.0
 70
0
  0
VERTEX
  5
885
  8
L_Geometry
 10
6728.56070314167
 20
12292.041063838178
 30
0.0
 70
0
  0
VERTEX
  5
886
  8
L_Geometry
 10
6828.697589858032
 20
12532.21757285487
 30
0.0
 70
0
  0
SEQEND
  5
884
  8
L_Geometry
  0
POLYLINE
  5
887
  8
L_Geometry
 66
1
 10
0.0
 20
0.0
 30
0.0
 70
0
  0
VERTEX
  5
889
  8
L_Geometry
 10
6821.872095850914
 20
12252.767748078357
 30
0.0
 70
0
  0
VERTEX
  5
88A
  8
L_Geometry
 10
6925.043485851728
 20
12490.678492637957
 30
0.0
 70
0
  0
SEQEND
  5
888
  8
L_Geometry
  0
POLYLINE
  5
88B
  8
L_Geometry
 66
1
 10
0.0
 20
0.0
 30
0.0
 70
0
  0
VERTEX
  5
88D
  8
L_Geometry
 10
6912.148989662908
 20
12213.49441659837
 30
0.0
 70
0
  0
VERTEX
  5
88E
  8
L_Geometry
 10
7020.630722443646
 20
12454.426302607613
 30
0.0
 70
0
  0
SEQEND
  5
88C
  8
L_Geometry
  0
POLYLINE
  5
88F
  8
L_Geometry
 66
1
 10
0.0
 20
0.0
 30
0.0
 70
0
  0
VERTEX
  5
891
  8
L_Geometry
 10
7005.460398963229
 20
12174.221116346278
 30
0.0
 70
0
  0
VERTEX
  5
892
  8
L_Geometry
 10
7110.907628727895
 20
12412.131921591374
 30
0.0
 70
0
  0
SEQEND
  5
890
  8
L_Geometry
  0
POLYLINE
  5
893
  8
L_Geometry
 66
1
 10
0.0
 20
0.0
 30
0.0
 70
0
  0
VERTEX
  5
895
  8
L_Geometry
 10
8014.442834212496
 20
11208.238998484001
 30
0.0
 70
0
  0
VERTEX
  5
896
  8
L_Geometry
 10
7214.087843445943
 20
11551.124952174083
 30
0.0
 70
0
  0
SEQEND
  5
894
  8
L_Geometry
  0
POLYLINE
  5
897
  8
L_Geometry
 66
1
 10
0.0
 20
0.0
 30
0.0
 70
0
  0
VERTEX
  5
899
  8
L_Geometry
 10
7285.399041193952
 20
11523.935800428122
 30
0.0
 70
0
  0
VERTEX
  5
89A
  8
L_Geometry
 10
7435.605556835228
 20
11728.615295868725
 30
0.0
 70
0
  0
VERTEX
  5
89B
  8
L_Geometry
 10
8117.6143849660775
 20
11406.87609475276
 30
0.0
 70
0
  0
SEQEND
  5
898
  8
L_Geometry
  0
POLYLINE
  5
89C
  8
L_Geometry
 66
1
 10
0.0
 20
0.0
 30
0.0
 70
0
  0
VERTEX
  5
89E
  8
L_Geometry
 10
7376.4346507249375
 20
11485.417760754399
 30
0.0
 70
0
  0
VERTEX
  5
89F
  8
L_Geometry
 10
7484.157929152994
 20
11701.42597530804
 30
0.0
 70
0
  0
SEQEND
  5
89D
  8
L_Geometry
  0
POLYLINE
  5
8A0
  8
L_Geometry
 66
1
 10
0.0
 20
0.0
 30
0.0
 70
0
  0
VERTEX
  5
8A2
  8
L_Geometry
 10
7467.470274263511
 20
11446.14445837796
 30
0.0
 70
0
  0
VERTEX
  5
8A3
  8
L_Geometry
 10
7567.607230254369
 20
11665.928980213765
 30
0.0
 70
0
  0
SEQEND
  5
8A1
  8
L_Geometry
  0
POLYLINE
  5
8A4
  8
L_Geometry
 66
1
 10
0.0
 20
0.0
 30
0.0
 70
0
  0
VERTEX
  5
8A6
  8
L_Geometry
 10
7560.781814378149
 20
11403.850100941962
 30
0.0
 70
0
  0
VERTEX
  5
8A7
  8
L_Geometry
 10
7654.091106623502
 20
11623.634584681156
 30
0.0
 70
0
  0
SEQEND
  5
8A5
  8
L_Geometry
  0
POLYLINE
  5
8A8
  8
L_Geometry
 66
1
 10
0.0
 20
0.0
 30
0.0
 70
0
  0
VERTEX
  5
8AA
  8
L_Geometry
 10
7651.0588533209075
 20
11361.555725236585
 30
0.0
 70
0
  0
VERTEX
  5
8AB
  8
L_Geometry
 10
7744.368127220402
 20
11581.340228732202
 30
0.0
 70
0
  0
SEQEND
  5
8A9
  8
L_Geometry
  0
POLYLINE
  5
8AC
  8
L_Geometry
 66
1
 10
0.0
 20
0.0
 30
0.0
 70
0
  0
VERTEX
  5
8AE
  8
L_Geometry
 10
7742.094475595738
 20
11325.303527912654
 30
0.0
 70
0
  0
VERTEX
  5
8AF
  8
L_Geometry
 10
7837.67966654888
 20
11539.045907056036
 30
0.0
 70
0
  0
SEQEND
  5
8AD
  8
L_Geometry
  0
POLYLINE
  5
8B0
  8
L_Geometry
 66
1
 10
0.0
 20
0.0
 30
0.0
 70
0
  0
VERTEX
  5
8B2
  8
L_Geometry
 10
7837.681917952314
 20
11283.764484446932
 30
0.0
 70
0
  0
VERTEX
  5
8B3
  8
L_Geometry
 10
7924.163567428511
 20
11496.751532129587
 30
0.0
 70
0
  0
SEQEND
  5
8B1
  8
L_Geometry
  0
POLYLINE
  5
8B4
  8
L_Geometry
 66
1
 10
0.0
 20
0.0
 30
0.0
 70
0
  0
VERTEX
  5
8B6
  8
L_Geometry
 10
7924.165816736751
 20
11244.491179308843
 30
0.0
 70
0
  0
VERTEX
  5
8B7
  8
L_Geometry
 10
8014.440606957177
 20
11455.212468128517
 30
0.0
 70
0
  0
SEQEND
  5
8B5
  8
L_Geometry
  0
POLYLINE
  5
8B8
  8
L_Geometry
 66
1
 10
0.0
 20
0.0
 30
0.0
 70
0
  0
VERTEX
  5
8BA
  8
L_Geometry
 10
8785.971594755443
 20
10762.636495456545
 30
0.0
 70
0
  0
VERTEX
  5
8BB
  8
L_Geometry
 10
8947.558368614236
 20
10862.333877711788
 30
0.0
 70
0
  0
VERTEX
  5
8BC
  8
L_Geometry
 10
9038.593242265348
 20
10909.916867369187
 30
0.0
 70
0
  0
VERTEX
  5
8BD
  8
L_Geometry
 10
9131.903981924916
 20
10958.255157401047
 30
0.0
 70
0
  0
SEQEND
  5
8B9
  8
L_Geometry
  0
POLYLINE
  5
8BE
  8
L_Geometry
 66
1
 10
0.0
 20
0.0
 30
0.0
 70
0
  0
VERTEX
  5
8C0
  8
L_Geometry
 10
9124.323914286259
 20
10353.282914223359
 30
0.0
 70
0
  0
VERTEX
  5
8C1
  8
L_Geometry
 10
8866.385657241488
 20
10813.995722292679
 30
0.0
 70
0
  0
SEQEND
  5
8BF
  8
L_Geometry
  0
POLYLINE
  5
8C2
  8
L_Geometry
 66
1
 10
0.0
 20
0.0
 30
0.0
 70
0
  0
VERTEX
  5
8C4
  8
L_Geometry
 10
9175.90937560784
 20
10476.392670824547
 30
0.0
 70
0
  0
VERTEX
  5
8C5
  8
L_Geometry
 10
8947.558368614236
 20
10862.333877711788
 30
0.0
 70
0
  0
SEQEND
  5
8C3
  8
L_Geometry
  0
POLYLINE
  5
8C6
  8
L_Geometry
 66
1
 10
0.0
 20
0.0
 30
0.0
 70
0
  0
VERTEX
  5
8C8
  8
L_Geometry
 10
9232.80511772131
 20
10609.32099338964
 30
0.0
 70
0
  0
VERTEX
  5
8C9
  8
L_Geometry
 10
9038.593242265348
 20
10909.916867369187
 30
0.0
 70
0
  0
SEQEND
  5
8C7
  8
L_Geometry
  0
POLYLINE
  5
8CA
  8
L_Geometry
 66
1
 10
0.0
 20
0.0
 30
0.0
 70
0
  0
VERTEX
  5
8CC
  8
L_Geometry
 10
1192.1107132224936
 20
6253.99212805751
 30
0.0
 70
0
  0
VERTEX
  5
8CD
  8
L_Geometry
 10
897.0027552135864
 20
6395.983437356178
 30
0.0
 70
0
  0
SEQEND
  5
8CB
  8
L_Geometry
  0
POLYLINE
  5
8CE
  8
L_Geometry
 66
1
 10
0.0
 20
0.0
 30
0.0
 70
0
  0
VERTEX
  5
8D0
  8
L_Geometry
 10
922.0376201465083
 20
6380.877968742872
 30
0.0
 70
0
  0
VERTEX
  5
8D1
  8
L_Geometry
 10
1101.0742641124532
 20
6753.983806131848
 30
0.0
 70
0
  0
SEQEND
  5
8CF
  8
L_Geometry
  0
POLYLINE
  5
8D2
  8
L_Geometry
 66
1
 10
0.0
 20
0.0
 30
0.0
 70
0
  0
VERTEX
  5
8D4
  8
L_Geometry
 10
1012.3148533760966
 20
6338.582681551283
 30
0.0
 70
0
  0
VERTEX
  5
8D5
  8
L_Geometry
 10
1189.075573341159
 20
6711.688551655192
 30
0.0
 70
0
  0
SEQEND
  5
8D3
  8
L_Geometry
  0
POLYLINE
  5
8D6
  8
L_Geometry
 66
1
 10
0.0
 20
0.0
 30
0.0
 70
0
  0
VERTEX
  5
8D8
  8
L_Geometry
 10
1378.7335932326032
 20
6621.811162499737
 30
0.0
 70
0
  0
VERTEX
  5
8D9
  8
L_Geometry
 10
1093.4879455840799
 20
6757.004894331209
 30
0.0
 70
0
  0
SEQEND
  5
8D7
  8
L_Geometry
  0
POLYLINE
  5
8DA
  8
L_Geometry
 66
1
 10
0.0
 20
0.0
 30
0.0
 70
0
  0
VERTEX
  5
8DC
  8
L_Geometry
 10
1103.3507268631606
 20
6296.287402857079
 30
0.0
 70
0
  0
VERTEX
  5
8DD
  8
L_Geometry
 10
1280.1114254942593
 20
6663.351112778112
 30
0.0
 70
0
  0
SEQEND
  5
8DB
  8
L_Geometry
  0
POLYLINE
  5
8DE
  8
L_Geometry
 66
1
 10
0.0
 20
0.0
 30
0.0
 70
0
  0
VERTEX
  5
8E0
  8
L_Geometry
 10
1378.734298609483
 20
6167.135789004804
 30
0.0
 70
0
  0
VERTEX
  5
8E1
  8
L_Geometry
 10
1697.3600319798195
 20
6010.794422712227
 30
0.0
 70
0
  0
SEQEND
  5
8DF
  8
L_Geometry
  0
POLYLINE
  5
8E2
  8
L_Geometry
 66
1
 10
0.0
 20
0.0
 30
0.0
 70
0
  0
VERTEX
  5
8E4
  8
L_Geometry
 10
1643.4962729799502
 20
6485.862189633883
 30
0.0
 70
0
  0
VERTEX
  5
8E5
  8
L_Geometry
 10
1466.735679162958
 20
6124.840534315714
 30
0.0
 70
0
  0
SEQEND
  5
8E3
  8
L_Geometry
  0
POLYLINE
  5
8E6
  8
L_Geometry
 66
1
 10
0.0
 20
0.0
 30
0.0
 70
0
  0
VERTEX
  5
8E8
  8
L_Geometry
 10
1552.460387927967
 20
6531.178502498238
 30
0.0
 70
0
  0
VERTEX
  5
8E9
  8
L_Geometry
 10
1867.2928558554318
 20
6377.858353211224
 30
0.0
 70
0
  0
SEQEND
  5
8E7
  8
L_Geometry
  0
POLYLINE
  5
8EA
  8
L_Geometry
 66
1
 10
0.0
 20
0.0
 30
0.0
 70
0
  0
VERTEX
  5
8EC
  8
L_Geometry
 10
1732.2562661122265
 20
6443.566977998214
 30
0.0
 70
0
  0
VERTEX
  5
8ED
  8
L_Geometry
 10
1557.7716012368778
 20
6079.52419220619
 30
0.0
 70
0
  0
SEQEND
  5
8EB
  8
L_Geometry
  0
POLYLINE
  5
8EE
  8
L_Geometry
 66
1
 10
0.0
 20
0.0
 30
0.0
 70
0
  0
VERTEX
  5
8F0
  8
L_Geometry
 10
1822.5335297545846
 20
6402.027050875215
 30
0.0
 70
0
  0
VERTEX
  5
8F1
  8
L_Geometry
 10
1645.7729989865054
 20
6037.228951466975
 30
0.0
 70
0
  0
SEQEND
  5
8EF
  8
L_Geometry
  0
POLYLINE
  5
8F2
  8
L_Geometry
 66
1
 10
0.0
 20
0.0
 30
0.0
 70
0
  0
VERTEX
  5
8F4
  8
L_Geometry
 10
1889.2940228837556
 20
5980.583808315454
 30
0.0
 70
0
  0
VERTEX
  5
8F5
  8
L_Geometry
 10
2050.881948623563
 20
6293.267985102078
 30
0.0
 70
0
  0
SEQEND
  5
8F3
  8
L_Geometry
  0
POLYLINE
  5
8F6
  8
L_Geometry
 66
1
 10
0.0
 20
0.0
 30
0.0
 70
0
  0
VERTEX
  5
8F8
  8
L_Geometry
 10
2002.3302128379441
 20
5980.584055730994
 30
0.0
 70
0
  0
VERTEX
  5
8F9
  8
L_Geometry
 10
2137.3660845789127
 20
6250.972799383432
 30
0.0
 70
0
  0
SEQEND
  5
8F7
  8
L_Geometry
  0
POLYLINE
  5
8FA
  8
L_Geometry
 66
1
 10
0.0
 20
0.0
 30
0.0
 70
0
  0
VERTEX
  5
8FC
  8
L_Geometry
 10
2311.0930114571847
 20
6167.137724496777
 30
0.0
 70
0
  0
VERTEX
  5
8FD
  8
L_Geometry
 10
2022.053909716953
 20
6305.352315806316
 30
0.0
 70
0
  0
SEQEND
  5
8FB
  8
L_Geometry
  0
POLYLINE
  5
8FE
  8
L_Geometry
 66
1
 10
0.0
 20
0.0
 30
0.0
 70
0
  0
VERTEX
  5
900
  8
L_Geometry
 10
2110.0559776417485
 20
5980.584305058445
 30
0.0
 70
0
  0
VERTEX
  5
901
  8
L_Geometry
 10
2227.6433942938415
 20
6206.411805233725
 30
0.0
 70
0
  0
SEQEND
  5
8FF
  8
L_Geometry
  0
POLYLINE
  5
902
  8
L_Geometry
 66
1
 10
0.0
 20
0.0
 30
0.0
 70
0
  0
VERTEX
  5
904
  8
L_Geometry
 10
2687.3750415823183
 20
5980.585863266505
 30
0.0
 70
0
  0
VERTEX
  5
905
  8
L_Geometry
 10
2483.302717510991
 20
6079.526296442076
 30
0.0
 70
0
  0
SEQEND
  5
903
  8
L_Geometry
  0
POLYLINE
  5
906
  8
L_Geometry
 66
1
 10
0.0
 20
0.0
 30
0.0
 70
0
  0
VERTEX
  5
908
  8
L_Geometry
 10
2532.614083510044
 20
5980.585408798006
 30
0.0
 70
0
  0
VERTEX
  5
909
  8
L_Geometry
 10
2562.2005652066186
 20
6040.252221015994
 30
0.0
 70
0
  0
SEQEND
  5
907
  8
L_Geometry
  0
POLYLINE
  5
90A
  8
L_Geometry
 66
1
 10
0.0
 20
0.0
 30
0.0
 70
0
  0
VERTEX
  5
90C
  8
L_Geometry
 10
2645.6502734644305
 20
5980.585738142504
 30
0.0
 70
0
  0
VERTEX
  5
90D
  8
L_Geometry
 10
2655.5124462347308
 20
5995.691268503477
 30
0.0
 70
0
  0
SEQEND
  5
90B
  8
L_Geometry
  0
POLYLINE
  5
90E
  8
L_Geometry
 66
1
 10
0.0
 20
0.0
 30
0.0
 70
0
  0
VERTEX
  5
910
  8
L_Geometry
 10
7963.651837332595
 20
7072.744546749113
 30
0.0
 70
0
  0
VERTEX
  5
911
  8
L_Geometry
 10
8174.561360642787
 20
5980.619395790638
 30
0.0
 70
0
  0
SEQEND
  5
90F
  8
L_Geometry
  0
POLYLINE
  5
912
  8
L_Geometry
 66
1
 10
0.0
 20
0.0
 30
0.0
 70
0
  0
VERTEX
  5
914
  8
L_Geometry
 10
8387.727221030354
 20
7016.102885967778
 30
0.0
 70
0
  0
VERTEX
  5
915
  8
L_Geometry
 10
7987.929251224902
 20
6937.55068419953
 30
0.0
 70
0
  0
SEQEND
  5
913
  8
L_Geometry
  0
POLYLINE
  5
916
  8
L_Geometry
 66
1
 10
0.0
 20
0.0
 30
0.0
 70
0
  0
VERTEX
  5
918
  8
L_Geometry
 10
8410.487102479003
 20
6916.406903444355
 30
0.0
 70
0
  0
VERTEX
  5
919
  8
L_Geometry
 10
8005.378643053862
 20
6840.875731739187
 30
0.0
 70
0
  0
SEQEND
  5
917
  8
L_Geometry
  0
POLYLINE
  5
91A
  8
L_Geometry
 66
1
 10
0.0
 20
0.0
 30
0.0
 70
0
  0
VERTEX
  5
91C
  8
L_Geometry
 10
8429.45379573113
 20
6820.487245976793
 30
0.0
 70
0
  0
VERTEX
  5
91D
  8
L_Geometry
 10
8024.3453217019905
 20
6741.934960084429
 30
0.0
 70
0
  0
SEQEND
  5
91B
  8
L_Geometry
  0
POLYLINE
  5
91E
  8
L_Geometry
 66
1
 10
0.0
 20
0.0
 30
0.0
 70
0
  0
VERTEX
  5
920
  8
L_Geometry
 10
8446.90323765776
 20
6723.812289692627
 30
0.0
 70
0
  0
VERTEX
  5
921
  8
L_Geometry
 10
8044.070615432783
 20
6645.260008048955
 30
0.0
 70
0
  0
SEQEND
  5
91F
  8
L_Geometry
  0
POLYLINE
  5
922
  8
L_Geometry
 66
1
 10
0.0
 20
0.0
 30
0.0
 70
0
  0
VERTEX
  5
924
  8
L_Geometry
 10
8464.35270496084
 20
6624.871499910112
 30
0.0
 70
0
  0
VERTEX
  5
925
  8
L_Geometry
 10
8063.795934474512
 20
6546.319222231887
 30
0.0
 70
0
  0
SEQEND
  5
923
  8
L_Geometry
  0
POLYLINE
  5
926
  8
L_Geometry
 66
1
 10
0.0
 20
0.0
 30
0.0
 70
0
  0
VERTEX
  5
928
  8
L_Geometry
 10
8486.353944245186
 20
6528.196566568888
 30
0.0
 70
0
  0
VERTEX
  5
929
  8
L_Geometry
 10
8083.521237068298
 20
6449.644250156745
 30
0.0
 70
0
  0
SEQEND
  5
927
  8
L_Geometry
  0
POLYLINE
  5
92A
  8
L_Geometry
 66
1
 10
0.0
 20
0.0
 30
0.0
 70
0
  0
VERTEX
  5
92C
  8
L_Geometry
 10
8503.04475909379
 20
6432.2768474244685
 30
0.0
 70
0
  0
VERTEX
  5
92D
  8
L_Geometry
 10
8100.970641529087
 20
6353.724521877639
 30
0.0
 70
0
  0
SEQEND
  5
92B
  8
L_Geometry
  0
POLYLINE
  5
92E
  8
L_Geometry
 66
1
 10
0.0
 20
0.0
 30
0.0
 70
0
  0
VERTEX
  5
930
  8
L_Geometry
 10
8522.770140742841
 20
6332.5807737665855
 30
0.0
 70
0
  0
VERTEX
  5
931
  8
L_Geometry
 10
8117.661452322641
 20
6254.028402687932
 30
0.0
 70
0
  0
SEQEND
  5
92F
  8
L_Geometry
  0
POLYLINE
  5
932
  8
L_Geometry
 66
1
 10
0.0
 20
0.0
 30
0.0
 70
0
  0
VERTEX
  5
934
  8
L_Geometry
 10
8545.530054843633
 20
6232.884718590515
 30
0.0
 70
0
  0
VERTEX
  5
935
  8
L_Geometry
 10
8140.421316071188
 20
6155.087603275046
 30
0.0
 70
0
  0
SEQEND
  5
933
  8
L_Geometry
  0
POLYLINE
  5
936
  8
L_Geometry
 66
1
 10
0.0
 20
0.0
 30
0.0
 70
0
  0
VERTEX
  5
938
  8
L_Geometry
 10
8562.220881624551
 20
6136.96496885551
 30
0.0
 70
0
  0
VERTEX
  5
939
  8
L_Geometry
 10
8159.388003354555
 20
6058.412583685358
 30
0.0
 70
0
  0
SEQEND
  5
937
  8
L_Geometry
  0
POLYLINE
  5
93A
  8
L_Geometry
 66
1
 10
0.0
 20
0.0
 30
0.0
 70
0
  0
VERTEX
  5
93C
  8
L_Geometry
 10
8584.222172583468
 20
6037.268885779691
 30
0.0
 70
0
  0
VERTEX
  5
93D
  8
L_Geometry
 10
8294.425240080674
 20
5980.620506328106
 30
0.0
 70
0
  0
SEQEND
  5
93B
  8
L_Geometry
  0
POLYLINE
  5
93E
  8
L_Geometry
 66
1
 10
0.0
 20
0.0
 30
0.0
 70
0
  0
VERTEX
  5
940
  8
L_Geometry
 10
8371.03640136483
 20
7115.043641052636
 30
0.0
 70
0
  0
VERTEX
  5
941
  8
L_Geometry
 10
8591.809041376875
 20
5980.62333163796
 30
0.0
 70
0
  0
SEQEND
  5
93F
  8
L_Geometry
  0
POLYLINE
  5
942
  8
L_Geometry
 66
1
 10
0.0
 20
0.0
 30
0.0
 70
0
  0
VERTEX
  5
944
  8
L_Geometry
 10
173.26820694403344
 20
5465.484080971846
 30
0.0
 70
0
  0
VERTEX
  5
945
  8
L_Geometry
 10
-109.70171943795573
 20
5694.332515189752
 30
0.0
 70
0
  0
VERTEX
  5
946
  8
L_Geometry
 10
-244.73827127862222
 20
5745.691260578188
 30
0.0
 70
0
  0
SEQEND
  5
943
  8
L_Geometry
  0
POLYLINE
  5
947
  8
L_Geometry
 66
1
 10
0.0
 20
0.0
 30
0.0
 70
0
  0
VERTEX
  5
949
  8
L_Geometry
 10
-102.11539592843604
 20
5691.311412898894
 30
0.0
 70
0
  0
VERTEX
  5
94A
  8
L_Geometry
 10
32.92116123453234
 20
5923.180894599521
 30
0.0
 70
0
  0
SEQEND
  5
948
  8
L_Geometry
  0
POLYLINE
  5
94B
  8
L_Geometry
 66
1
 10
0.0
 20
0.0
 30
0.0
 70
0
  0
VERTEX
  5
94D
  8
L_Geometry
 10
342.4431913709669
 20
5679.227068173968
 30
0.0
 70
0
  0
VERTEX
  5
94E
  8
L_Geometry
 10
40.50748336795497
 20
5923.1808948827675
 30
0.0
 70
0
  0
VERTEX
  5
94F
  8
L_Geometry
 10
-70.25281247898947
 20
5980.581802932485
 30
0.0
 70
0
  0
SEQEND
  5
94C
  8
L_Geometry
  0
POLYLINE
  5
950
  8
L_Geometry
 66
1
 10
0.0
 20
0.0
 30
0.0
 70
0
  0
VERTEX
  5
952
  8
L_Geometry
 10
-62.66651401974581
 20
5655.05819418923
 30
0.0
 70
0
  0
VERTEX
  5
953
  8
L_Geometry
 10
108.78438761318208
 20
5868.801091673124
 30
0.0
 70
0
  0
SEQEND
  5
951
  8
L_Geometry
  0
POLYLINE
  5
954
  8
L_Geometry
 66
1
 10
0.0
 20
0.0
 30
0.0
 70
0
  0
VERTEX
  5
956
  8
L_Geometry
 10
15.472626777989504
 20
5592.3703377458505
 30
0.0
 70
0
  0
VERTEX
  5
957
  8
L_Geometry
 10
189.95805184070912
 20
5803.092164804082
 30
0.0
 70
0
  0
SEQEND
  5
955
  8
L_Geometry
  0
POLYLINE
  5
958
  8
L_Geometry
 66
1
 10
0.0
 20
0.0
 30
0.0
 70
0
  0
VERTEX
  5
95A
  8
L_Geometry
 10
92.09451334873148
 20
5528.927207907212
 30
0.0
 70
0
  0
VERTEX
  5
95B
  8
L_Geometry
 10
266.57993202390617
 20
5742.6701660766
 30
0.0
 70
0
  0
SEQEND
  5
959
  8
L_Geometry
  0
POLYLINE
  5
95C
  8
L_Geometry
 66
1
 10
0.0
 20
0.0
 30
0.0
 70
0
  0
VERTEX
  5
95E
  8
L_Geometry
 10
1955.2974974134058
 20
4854.468135760689
 30
0.0
 70
0
  0
VERTEX
  5
95F
  8
L_Geometry
 10
1742.1216531691116
 20
4824.256651514889
 30
0.0
 70
0
  0
VERTEX
  5
960
  8
L_Geometry
 10
1525.9112100810662
 20
4824.256253978873
 30
0.0
 70
0
  0
VERTEX
  5
961
  8
L_Geometry
 10
1253.5618851100403
 20
4845.403556687888
 30
0.0
 70
0
  0
VERTEX
  5
962
  8
L_Geometry
 10
1095.7661560800495
 20
4878.6354920415715
 30
0.0
 70
0
  0
VERTEX
  5
963
  8
L_Geometry
 10
946.3153829320377
 20
4929.994085680866
 30
0.0
 70
0
  0
VERTEX
  5
964
  8
L_Geometry
 10
708.1045115722353
 20
5050.082730360828
 30
0.0
 70
0
  0
SEQEND
  5
95D
  8
L_Geometry
  0
POLYLINE
  5
965
  8
L_Geometry
 66
1
 10
0.0
 20
0.0
 30
0.0
 70
0
  0
VERTEX
  5
967
  8
L_Geometry
 10
791.5541719492873
 20
5008.542628828993
 30
0.0
 70
0
  0
VERTEX
  5
968
  8
L_Geometry
 10
909.1420532569269
 20
5233.614924012966
 30
0.0
 70
0
  0
SEQEND
  5
966
  8
L_Geometry
  0
POLYLINE
  5
969
  8
L_Geometry
 66
1
 10
0.0
 20
0.0
 30
0.0
 70
0
  0
VERTEX
  5
96B
  8
L_Geometry
 10
1962.8831561713216
 20
5158.844330620802
 30
0.0
 70
0
  0
VERTEX
  5
96C
  8
L_Geometry
 10
1896.123562277809
 20
5113.527639764417
 30
0.0
 70
0
  0
VERTEX
  5
96D
  8
L_Geometry
 10
1722.3966837607566
 20
5086.337357158074
 30
0.0
 70
0
  0
VERTEX
  5
96E
  8
L_Geometry
 10
1540.3247852581212
 20
5086.33702292758
 30
0.0
 70
0
  0
VERTEX
  5
96F
  8
L_Geometry
 10
1295.286324546134
 20
5107.484354598517
 30
0.0
 70
0
  0
VERTEX
  5
970
  8
L_Geometry
 10
1167.0773301033068
 20
5134.6741049852835
 30
0.0
 70
0
  0
VERTEX
  5
971
  8
L_Geometry
 10
1039.6269586981718
 20
5176.969388990353
 30
0.0
 70
0
  0
VERTEX
  5
972
  8
L_Geometry
 10
862.8654327248682
 20
5254.762596712306
 30
0.0
 70
0
  0
SEQEND
  5
96A
  8
L_Geometry
  0
POLYLINE
  5
973
  8
L_Geometry
 66
1
 10
0.0
 20
0.0
 30
0.0
 70
0
  0
VERTEX
  5
975
  8
L_Geometry
 10
877.2797401920618
 20
4966.247259354387
 30
0.0
 70
0
  0
VERTEX
  5
976
  8
L_Geometry
 10
993.3503354882936
 20
5195.095953450666
 30
0.0
 70
0
  0
SEQEND
  5
974
  8
L_Geometry
  0
POLYLINE
  5
977
  8
L_Geometry
 66
1
 10
0.0
 20
0.0
 30
0.0
 70
0
  0
VERTEX
  5
979
  8
L_Geometry
 10
970.5916503267737
 20
4920.930800547437
 30
0.0
 70
0
  0
VERTEX
  5
97A
  8
L_Geometry
 10
1054.0409859770068
 20
5173.948302915339
 30
0.0
 70
0
  0
SEQEND
  5
978
  8
L_Geometry
  0
POLYLINE
  5
97B
  8
L_Geometry
 66
1
 10
0.0
 20
0.0
 30
0.0
 70
0
  0
VERTEX
  5
97D
  8
L_Geometry
 10
1063.9035518944452
 20
4890.719868844128
 30
0.0
 70
0
  0
VERTEX
  5
97E
  8
L_Geometry
 10
1147.352867715904
 20
5140.716285632696
 30
0.0
 70
0
  0
SEQEND
  5
97C
  8
L_Geometry
  0
POLYLINE
  5
97F
  8
L_Geometry
 66
1
 10
0.0
 20
0.0
 30
0.0
 70
0
  0
VERTEX
  5
981
  8
L_Geometry
 10
1160.2499841695005
 20
4866.551157796755
 30
0.0
 70
0
  0
VERTEX
  5
982
  8
L_Geometry
 10
1218.6643859432077
 20
5119.568659031673
 30
0.0
 70
0
  0
SEQEND
  5
980
  8
L_Geometry
  0
POLYLINE
  5
983
  8
L_Geometry
 66
1
 10
0.0
 20
0.0
 30
0.0
 70
0
  0
VERTEX
  5
985
  8
L_Geometry
 10
1260.3895830800464
 20
4845.403566318258
 30
0.0
 70
0
  0
VERTEX
  5
986
  8
L_Geometry
 10
1282.3895609530687
 20
5110.505439044865
 30
0.0
 70
0
  0
SEQEND
  5
984
  8
L_Geometry
  0
POLYLINE
  5
987
  8
L_Geometry
 66
1
 10
0.0
 20
0.0
 30
0.0
 70
0
  0
VERTEX
  5
989
  8
L_Geometry
 10
1359.011897354426
 20
4839.361503288821
 30
0.0
 70
0
  0
VERTEX
  5
98A
  8
L_Geometry
 10
1378.735951908426
 20
5101.442273937006
 30
0.0
 70
0
  0
SEQEND
  5
988
  8
L_Geometry
  0
POLYLINE
  5
98B
  8
L_Geometry
 66
1
 10
0.0
 20
0.0
 30
0.0
 70
0
  0
VERTEX
  5
98D
  8
L_Geometry
 10
1459.151489177704
 20
4827.277246016155
 30
0.0
 70
0
  0
VERTEX
  5
98E
  8
L_Geometry
 10
1481.9100411317943
 20
5092.379130001797
 30
0.0
 70
0
  0
SEQEND
  5
98C
  8
L_Geometry
  0
POLYLINE
  5
98F
  8
L_Geometry
 66
1
 10
0.0
 20
0.0
 30
0.0
 70
0
  0
VERTEX
  5
991
  8
L_Geometry
 10
1557.7738015194998
 20
4824.2563092826895
 30
0.0
 70
0
  0
VERTEX
  5
992
  8
L_Geometry
 10
1562.3251397008203
 20
5086.337061307438
 30
0.0
 70
0
  0
SEQEND
  5
990
  8
L_Geometry
  0
POLYLINE
  5
993
  8
L_Geometry
 66
1
 10
0.0
 20
0.0
 30
0.0
 70
0
  0
VERTEX
  5
995
  8
L_Geometry
 10
1658.6720083553264
 20
4824.256491905666
 30
0.0
 70
0
  0
VERTEX
  5
996
  8
L_Geometry
 10
1658.6715192157399
 20
5086.337235857897
 30
0.0
 70
0
  0
SEQEND
  5
994
  8
L_Geometry
  0
POLYLINE
  5
997
  8
L_Geometry
 66
1
 10
0.0
 20
0.0
 30
0.0
 70
0
  0
VERTEX
  5
999
  8
L_Geometry
 10
1756.5356828157871
 20
4824.25667991032
 30
0.0
 70
0
  0
VERTEX
  5
99A
  8
L_Geometry
 10
1722.3966837607566
 20
5086.337357158074
 30
0.0
 70
0
  0
SEQEND
  5
998
  8
L_Geometry
  0
POLYLINE
  5
99B
  8
L_Geometry
 66
1
 10
0.0
 20
0.0
 30
0.0
 70
0
  0
VERTEX
  5
99D
  8
L_Geometry
 10
1854.3993255267158
 20
4839.362398842437
 30
0.0
 70
0
  0
VERTEX
  5
99E
  8
L_Geometry
 10
1820.260298192089
 20
5101.4430685133575
 30
0.0
 70
0
  0
SEQEND
  5
99C
  8
L_Geometry
  0
POLYLINE
  5
99F
  8
L_Geometry
 66
1
 10
0.0
 20
0.0
 30
0.0
 70
0
  0
VERTEX
  5
9A1
  8
L_Geometry
 10
2129.7808532842187
 20
5797.052494921638
 30
0.0
 70
0
  0
VERTEX
  5
9A2
  8
L_Geometry
 10
1847.5693426950536
 20
5938.288316620121
 30
0.0
 70
0
  0
SEQEND
  5
9A0
  8
L_Geometry
  0
POLYLINE
  5
9A3
  8
L_Geometry
 66
1
 10
0.0
 20
0.0
 30
0.0
 70
0
  0
VERTEX
  5
9A5
  8
L_Geometry
 10
1864.2592635494198
 20
5932.246150559886
 30
0.0
 70
0
  0
VERTEX
  5
9A6
  8
L_Geometry
 10
1889.2940228837556
 20
5980.583808315454
 30
0.0
 70
0
  0
SEQEND
  5
9A4
  8
L_Geometry
  0
POLYLINE
  5
9A7
  8
L_Geometry
 66
1
 10
0.0
 20
0.0
 30
0.0
 70
0
  0
VERTEX
  5
9A9
  8
L_Geometry
 10
1953.019329119608
 20
5886.929834367387
 30
0.0
 70
0
  0
VERTEX
  5
9AA
  8
L_Geometry
 10
2002.3302128379441
 20
5980.584055730994
 30
0.0
 70
0
  0
SEQEND
  5
9A8
  8
L_Geometry
  0
POLYLINE
  5
9AB
  8
L_Geometry
 66
1
 10
0.0
 20
0.0
 30
0.0
 70
0
  0
VERTEX
  5
9AD
  8
L_Geometry
 10
2041.0207714587862
 20
5841.613522848452
 30
0.0
 70
0
  0
VERTEX
  5
9AE
  8
L_Geometry
 10
2110.0559776417485
 20
5980.584305058445
 30
0.0
 70
0
  0
SEQEND
  5
9AC
  8
L_Geometry
  0
POLYLINE
  5
9AF
  8
L_Geometry
 66
1
 10
0.0
 20
0.0
 30
0.0
 70
0
  0
VERTEX
  5
9B1
  8
L_Geometry
 10
2642.6170610964464
 20
5537.994437243727
 30
0.0
 70
0
  0
VERTEX
  5
9B2
  8
L_Geometry
 10
2304.266502530584
 20
5712.462102453319
 30
0.0
 70
0
  0
SEQEND
  5
9B0
  8
L_Geometry
  0
POLYLINE
  5
9B3
  8
L_Geometry
 66
1
 10
0.0
 20
0.0
 30
0.0
 70
0
  0
VERTEX
  5
9B5
  8
L_Geometry
 10
2377.853939830531
 20
5676.209082157605
 30
0.0
 70
0
  0
VERTEX
  5
9B6
  8
L_Geometry
 10
2532.614083510044
 20
5980.585408798006
 30
0.0
 70
0
  0
SEQEND
  5
9B4
  8
L_Geometry
  0
POLYLINE
  5
9B7
  8
L_Geometry
 66
1
 10
0.0
 20
0.0
 30
0.0
 70
0
  0
VERTEX
  5
9B9
  8
L_Geometry
 10
2465.855424698471
 20
5630.892802008184
 30
0.0
 70
0
  0
VERTEX
  5
9BA
  8
L_Geometry
 10
2645.6502734644305
 20
5980.585738142504
 30
0.0
 70
0
  0
SEQEND
  5
9B8
  8
L_Geometry
  0
POLYLINE
  5
9BB
  8
L_Geometry
 66
1
 10
0.0
 20
0.0
 30
0.0
 70
0
  0
VERTEX
  5
9BD
  8
L_Geometry
 10
2554.615557555684
 20
5583.3107042222
 30
0.0
 70
0
  0
VERTEX
  5
9BE
  8
L_Geometry
 10
2745.7898104262613
 20
5950.375039196745
 30
0.0
 70
0
  0
SEQEND
  5
9BC
  8
L_Geometry
  0
POLYLINE
  5
9BF
  8
L_Geometry
 66
1
 10
0.0
 20
0.0
 30
0.0
 70
0
  0
VERTEX
  5
9C1
  8
L_Geometry
 10
2822.4117749221277
 20
5914.122074417282
 30
0.0
 70
0
  0
VERTEX
  5
9C2
  8
L_Geometry
 10
2687.3750415823183
 20
5980.585863266505
 30
0.0
 70
0
  0
SEQEND
  5
9C0
  8
L_Geometry
  0
POLYLINE
  5
9C3
  8
L_Geometry
 66
1
 10
0.0
 20
0.0
 30
0.0
 70
0
  0
VERTEX
  5
9C5
  8
L_Geometry
 10
8174.561360642787
 20
5980.619395790638
 30
0.0
 70
0
  0
VERTEX
  5
9C6
  8
L_Geometry
 10
8198.838815545918
 20
5847.691199765779
 30
0.0
 70
0
  0
SEQEND
  5
9C4
  8
L_Geometry
  0
POLYLINE
  5
9C7
  8
L_Geometry
 66
1
 10
0.0
 20
0.0
 30
0.0
 70
0
  0
VERTEX
  5
9C9
  8
L_Geometry
 10
8294.425240080674
 20
5980.620506328106
 30
0.0
 70
0
  0
VERTEX
  5
9CA
  8
L_Geometry
 10
8179.113348258279
 20
5959.471735978999
 30
0.0
 70
0
  0
SEQEND
  5
9C8
  8
L_Geometry
  0
POLYLINE
  5
9CB
  8
L_Geometry
 66
1
 10
0.0
 20
0.0
 30
0.0
 70
0
  0
VERTEX
  5
9CD
  8
L_Geometry
 10
8601.671668882555
 20
5938.328022990473
 30
0.0
 70
0
  0
VERTEX
  5
9CE
  8
L_Geometry
 10
8194.286910916415
 20
5859.775560281679
 30
0.0
 70
0
  0
SEQEND
  5
9CC
  8
L_Geometry
  0
POLYLINE
  5
9CF
  8
L_Geometry
 66
1
 10
0.0
 20
0.0
 30
0.0
 70
0
  0
VERTEX
  5
9D1
  8
L_Geometry
 10
8591.809041376875
 20
5980.62333163796
 30
0.0
 70
0
  0
VERTEX
  5
9D2
  8
L_Geometry
 10
8601.671698123182
 20
5935.306922399092
 30
0.0
 70
0
  0
SEQEND
  5
9D0
  8
L_Geometry
  0
TEXT
  5
9D3
  8
TXT_Road_Prefectural
 10
9743.365646794602
 20
2233.011714919228
 30
0.0
 40
308.04909317739924
  1
外堀通り
  7
YOKO
 11
9743.365646794602
 21
2233.011714919228
 31
0.0
  0
TEXT
  5
9D4
  8
TXT_Site
 10
895.038749058794
 20
4871.847047782402
 30
0.0
 40
498.0
  1
区立淡路
 50
-24.409384963790394
  7
YOKO
 11
895.038749058794
 21
4871.847047782402
 31
0.0
  0
TEXT
  5
9D5
  8
TXT_Site
 10
645.1689872960005
 20
4326.351766266049
 30
0.0
 40
498.0
  1
公園
 50
-24.409384963790394
  7
YOKO
 11
645.1689872960005
 21
4326.351766266049
 31
0.0
  0
TEXT
  5
9D6
  8
TXT_Building_Name
 10
-515.1316566776076
 20
2613.6596638604906
 30
0.0
 40
242.0498263484692
  1
医療法人財団
 50
-24.747036246870145
  7
TATE
 11
-515.1316566776076
 21
2613.6596638604906
 31
0.0
  0
TEXT
  5
9D7
  8
TXT_Building_Name
 10
-779.9764201300604
 20
2735.738115113103
 30
0.0
 40
242.0498263484692
  1
神尾記念病院
 50
-24.747036246870145
  7
TATE
 11
-779.9764201300604
 21
2735.738115113103
 31
0.0
  0
TEXT
  5
9D8
  8
TXT_Building_Name
 10
12434.847168730425
 20
3666.058064900014
 30
0.0
 40
171.779998237235
  1
医療法人
 50
-30.771970690774943
  7
YOKO
 11
12434.847168730425
 21
3666.058064900014
 31
0.0
  0
TEXT
  5
9D9
  8
TXT_Building_Name
 10
12328.091900147603
 20
3488.7522578836806
 30
0.0
 40
171.779998237235
  1
社団亮友会
 50
-30.771970690774943
  7
YOKO
 11
12328.091900147603
 21
3488.7522578836806
 31
0.0
  0
TEXT
  5
9DA
  8
TXT_Building_Name
 10
12221.33663156478
 20
3311.4464508673473
 30
0.0
 40
171.779998237235
  1
大塩医院
 50
-30.771970690774943
  7
YOKO
 11
12221.33663156478
 21
3311.4464508673473
 31
0.0
  0
TEXT
  5
9DB
  8
TXT_Building_Name
 10
11578.930951075248
 20
14249.412730599453
 30
0.0
 40
498.0
  1
損保会館
 50
-20.356310232828182
  7
YOKO
 11
11578.930951075248
 21
14249.412730599453
 31
0.0
  0
TEXT
  5
9DC
  8
TXT_Building_Name
 10
10171.654393813307
 20
-306.4395779533297
 30
0.0
 40
259.39236932765266
  1
淡路ビル
 50
-30.85999626460122
  7
YOKO
 11
10171.654393813307
 21
-306.4395779533297
 31
0.0
  0
TEXT
  5
9DD
  8
TXT_Building_Name
 10
10730.256102706084
 20
82.79575606414244
 30
0.0
 40
198.15713912514397
  1
きそば
 50
-30.691715515408696
  7
YOKO
 11
10730.256102706084
 21
82.79575606414244
 31
0.0
  0
TEXT
  5
9DE
  8
TXT_Building_Name
 10
10607.359326018655
 20
-121.88658490301128
 30
0.0
 40
198.15713912514397
  1
松竹庵
 50
-30.691715515408696
  7
YOKO
 11
10607.359326018655
 21
-121.88658490301128
 31
0.0
  0
TEXT
  5
9DF
  8
TXT_Building_Name
 10
9486.703803453605
 20
9261.610811150995
 30
0.0
 40
219.88724728036314
  1
ＷＡＴＥＲＲＡＳ 
 50
-24.606300286608523
  7
YOKO
 11
9486.703803453605
 21
9261.610811150995
 31
0.0
  0
TEXT
  5
9E0
  8
TXT_Building_Name
 10
9375.677320715742
 20
9021.073797713698
 30
0.0
 40
219.88724728036314
  1
ＡＮＮＥＸ
 50
-24.606300286608523
  7
YOKO
 11
9375.677320715742
 21
9021.073797713698
 31
0.0
  0
TEXT
  5
9E1
  8
TXT_Building_Name
 10
13445.988166393243
 20
2298.071985108018
 30
0.0
 40
485.413864418825
  1
神田淡路町
 50
-29.666584022146363
  7
TATE
 11
13445.988166393243
 21
2298.071985108018
 31
0.0
  0
TEXT
  5
9E2
  8
TXT_Building_Name
 10
12937.812178885242
 20
2587.537510963174
 30
0.0
 40
485.413864418825
  1
二丁目ビル
 50
-29.666584022146363
  7
TATE
 11
12937.812178885242
 21
2587.537510963174
 31
0.0
  0
TEXT
  5
9E3
  8
TXT_Building_Name
 10
869.3896321121465
 20
6007.886075274227
 30
0.0
 40
271.02809393842574
  1
ＷＣ
 50
-23.52551420747625
  7
YOKO
 11
869.3896321121465
 21
6007.886075274227
 31
0.0
  0
TEXT
  5
9E4
  8
TXT_Building_Name
 10
2139.1746507619423
 20
6908.556680255638
 30
0.0
 40
292.96421153754574
  1
ＷＡＴＥＲＲＡＳ ＴＯＷＥＲ
 50
63.78916936932069
  7
YOKO
 11
2139.1746507619423
 21
6908.556680255638
 31
0.0
  0
TEXT
  5
9E5
  8
TXT_Building_Name
 10
2456.3676505778694
 20
6753.7159036338435
 30
0.0
 40
292.96421153754574
  1
㈱ゼンリン東京本社
 50
63.78916936932069
  7
YOKO
 11
2456.3676505778694
 21
6753.7159036338435
 31
0.0
  0
TEXT
  5
9E6
  8
TXT_Building_Name
 10
1327.4040405369497
 20
1478.4349108198094
 30
0.0
 40
388.0741011684254
  1
淡路にこにこ
 50
-25.01787147376632
  7
YOKO
 11
1327.4040405369497
 21
1478.4349108198094
 31
0.0
  0
TEXT
  5
9E7
  8
TXT_Building_Name
 10
1128.641789500404
 20
1055.2267660203743
 30
0.0
 40
388.0741011684254
  1
フォーユー
 50
-25.01787147376632
  7
YOKO
 11
1128.641789500404
 21
1055.2267660203743
 31
0.0
  0
TEXT
  5
9E8
  8
TXT_Building_Name
 10
929.8795384638584
 20
632.0186212209392
 30
0.0
 40
388.0741011684254
  1
プラザ
 50
-25.01787147376632
  7
YOKO
 11
929.8795384638584
 21
632.0186212209392
 31
0.0
  0
TEXT
  5
9E9
  8
TXT_Building_Name
 10
5683.210442486812
 20
-117.78556849259213
 30
0.0
 40
206.27287747445837
  1
パークフロント
 50
-24.0167806637288
  7
TATE
 11
5683.210442486812
 21
-117.78556849259213
 31
0.0
  0
TEXT
  5
9EA
  8
TXT_Building_Name
 10
5456.2043206001445
 20
-16.636292491927406
 30
0.0
 40
206.27287747445837
  1
淡路町
 50
-24.0167806637288
  7
TATE
 11
5456.2043206001445
 21
-16.636292491927406
 31
0.0
  0
TEXT
  5
9EB
  8
TXT_Building_Name
 10
5276.601081718696
 20
11989.2929846285
 30
0.0
 40
116.86101261800495
  1
ＥＶ
 50
-21.22815584464543
  7
YOKO
 11
5276.601081718696
 21
11989.2929846285
 31
0.0
  0
TEXT
  5
9EC
  8
TXT_Building_Name
 10
9241.789833123303
 20
10336.931929638891
 30
0.0
 40
126.32408273379866
  1
ＥＶ
 50
-24.24708723683137
  7
YOKO
 11
9241.789833123303
 21
10336.931929638891
 31
0.0
  0
TEXT
  5
9ED
  8
TXT_Building_Number
 10
10397.989004634734
 20
43.688970627802014
 30
0.0
 40
107.81775169800086
  1
６
 50
329.1959281173558
  7
YOKO
 41
0.538431
 11
10397.989004634734
 21
43.688970627802014
 31
0.0
  0
TEXT
  5
9EE
  8
TXT_Building_Number
 10
9216.945864407639
 20
5958.944533644622
 30
0.0
 40
107.81631784806873
  1
１０５
 50
-24.681043853095446
  7
YOKO
 41
0.538431
 11
9216.945864407639
 21
5958.944533644622
 31
0.0
  0
TEXT
  5
9EF
  8
TXT_Building_Number
 10
10668.617036576528
 20
527.666054615366
 30
0.0
 40
107.81763368868111
  1
６
 50
-29.8000087137152
  7
YOKO
 41
0.538431
 11
10668.617036576528
 21
527.666054615366
 31
0.0
  0
TEXT
  5
9F0
  8
TXT_Building_Number
 10
1035.294627836912
 20
6871.852663279772
 30
0.0
 40
107.8160740773385
  1
１０１
 50
63.88963657701646
  7
YOKO
 41
0.538431
 11
1035.294627836912
 21
6871.852663279772
 31
0.0
  0
TEXT
  5
9F1
  8
TXT_Building_Number
 10
601.8292951264251
 20
662.151930985433
 30
0.0
 40
107.81760590473951
  1
１０９
 50
334.8844703964067
  7
YOKO
 41
0.538431
 11
601.8292951264251
 21
662.151930985433
 31
0.0
  0
TEXT
  5
9F2
  8
TXT_Building_Floor
 10
8277.309459743725
 20
7592.350399990367
 30
0.0
 40
92.41364615777736
  1
２Ｆ
 50
336.29736328125
  7
YOKO
 41
0.538431
 11
8277.309459743725
 21
7592.350399990367
 31
0.0
  0
TEXT
  5
9F3
  8
TXT_Building_Floor
 10
3034.31537009076
 20
12091.031874322
 30
0.0
 40
92.41270893823042
  1
１Ｆ
 50
334.0059814453125
  7
YOKO
 41
0.538431
 11
3034.31537009076
 21
12091.031874322
 31
0.0
  0
TEXT
  5
9F4
  8
TXT_Building_Floor
 10
5270.29887921063
 20
11836.568157053041
 30
0.0
 40
92.4127609957794
  1
２Ｆ
 50
338.68559291109426
  7
YOKO
 41
0.538431
 11
5270.29887921063
 21
11836.568157053041
 31
0.0
  0
TEXT
  5
9F5
  8
TXT_Building_Floor
 10
9543.975888082976
 20
10443.39423604611
 30
0.0
 40
92.41305187793112
  1
１Ｆ
 50
335.73321533203125
  7
YOKO
 41
0.538431
 11
9543.975888082976
 21
10443.39423604611
 31
0.0
  0
TEXT
  5
9F6
  8
TXT_Building_Floor
 10
9413.465521482589
 20
10208.589023153794
 30
0.0
 40
92.41310105909429
  1
２Ｆ
 50
335.65701955024144
  7
YOKO
 41
0.538431
 11
9413.465521482589
 21
10208.589023153794
 31
0.0
  0
TEXT
  5
9F7
  8
TXT_Building_Floor
 10
10810.441523154748
 20
6574.5273142563265
 30
0.0
 40
92.41385873829154
  1
３Ｆ
 50
334.3898010253906
  7
YOKO
 41
0.538431
 11
10810.441523154748
 21
6574.5273142563265
 31
0.0
  0
TEXT
  5
9F8
  8
TXT_Building_Floor
 10
10110.723446676224
 20
5611.820292352682
 30
0.0
 40
92.41406125813108
  1
１５Ｆ
 50
-24.681043853095446
  7
YOKO
 41
0.538431
 11
10110.723446676224
 21
5611.820292352682
 31
0.0
  0
TEXT
  5
9F9
  8
TXT_Building_Floor
 10
1648.4299999967689
 20
5732.355541309629
 30
0.0
 40
92.41403379999092
  1
１Ｆ
 50
336.38127402224393
  7
YOKO
 41
0.538431
 11
1648.4299999967689
 21
5732.355541309629
 31
0.0
  0
TEXT
  5
9FA
  8
TXT_Building_Floor
 10
4770.122384294275
 20
5185.544746404107
 30
0.0
 40
92.41413422810916
  1
４１Ｆ
 50
63.88963657701646
  7
YOKO
 41
0.538431
 11
4770.122384294275
 21
5185.544746404107
 31
0.0
  0
ENDSEC
  0
EOF
