  0
SECTION
  2
HEADER
  9
$ACADVER
  1
AC1009
  9
$INSBASE
 10
0.0
 20
0.0
 30
0.0
  9
$EXTMIN
 10
-6127774.1718039698898792
 20
-33812295.4221583977341652
 30
-0.0015258207003583
  9
$EXTMAX
 10
-5906165.0325205978006124
 20
-33314429.3105645217001438
 30
0.0000000349246037
  9
$LIMMIN
 10
0.0
 20
0.0
  9
$LIMMAX
 10
420.0
 20
297.0
  9
$ORTHOMODE
 70
     0
  9
$REGENMODE
 70
     1
  9
$FILLMODE
 70
     1
  9
$QTEXTMODE
 70
     0
  9
$MIRRTEXT
 70
     1
  9
$DRAGMODE
 70
     2
  9
$LTSCALE
 40
1.0
  9
$OSMODE
 70
    37
  9
$ATTMODE
 70
     1
  9
$TEXTSIZE
 40
2.5
  9
$TRACEWID
 40
1.0
  9
$TEXTSTYLE
  7
OPENSANS
  9
$CLAYER
  8
0
  9
$CELTYPE
  6
BYLAYER
  9
$CECOLOR
 62
   256
  9
$DIMSCALE
 40
1.0
  9
$DIMASZ
 40
0.175
  9
$DIMEXO
 40
0.125
  9
$DIMDLI
 40
3.75
  9
$DIMRND
 40
0.0
  9
$DIMDLE
 40
0.0
  9
$DIMEXE
 40
0.375
  9
$DIMTP
 40
0.0
  9
$DIMTM
 40
0.0
  9
$DIMTXT
 40
0.25
  9
$DIMCEN
 40
2.5
  9
$DIMTSZ
 40
0.0
  9
$DIMTOL
 70
     0
  9
$DIMLIM
 70
     0
  9
$DIMTIH
 70
     0
  9
$DIMTOH
 70
     0
  9
$DIMSE1
 70
     0
  9
$DIMSE2
 70
     0
  9
$DIMTAD
 70
     1
  9
$DIMZIN
 70
     8
  9
$DIMBLK
  1
ARCHTICK
  9
$DIMASO
 70
     1
  9
$DIMSHO
 70
     1
  9
$DIMPOST
  1

  9
$DIMAPOST
  1

  9
$DIMALT
 70
     0
  9
$DIMALTD
 70
     3
  9
$DIMALTF
 40
0.03937007874
  9
$DIMLFAC
 40
100.0
  9
$DIMTOFL
 70
     1
  9
$DIMTVP
 40
0.0
  9
$DIMTIX
 70
     0
  9
$DIMSOXD
 70
     0
  9
$DIMSAH
 70
     0
  9
$DIMBLK1
  1

  9
$DIMBLK2
  1

  9
$DIMSTYLE
  2
EZDXF
  9
$DIMCLRD
 70
     0
  9
$DIMCLRE
 70
     0
  9
$DIMCLRT
 70
     0
  9
$DIMTFAC
 40
1.0
  9
$DIMGAP
 40
0.1
  9
$LUNITS
 70
     2
  9
$LUPREC
 70
     4
  9
$SKETCHINC
 40
1.0
  9
$FILLETRAD
 40
10.0
  9
$AUNITS
 70
     0
  9
$AUPREC
 70
     2
  9
$MENU
  1
.
  9
$ELEVATION
 40
0.0
  9
$PELEVATION
 40
0.0
  9
$THICKNESS
 40
0.0
  9
$LIMCHECK
 70
     0
  9
$BLIPMODE
 70
     0
  9
$CHAMFERA
 40
0.0
  9
$CHAMFERB
 40
0.0
  9
$SKPOLY
 70
     0
  9
$TDCREATE
 40
2458992.3988541672006249
  9
$TDUPDATE
 40
2458998.6480902777984738
  9
$TDINDWG
 40
0.0036458333
  9
$TDUSRTIMER
 40
0.0036458333
  9
$USRTIMER
 70
     1
  9
$ANGBASE
 50
0.0
  9
$ANGDIR
 70
     0
  9
$PDMODE
 70
     0
  9
$PDSIZE
 40
0.0
  9
$PLINEWID
 40
0.0
  9
$COORDS
 70
     1
  9
$SPLFRAME
 70
     0
  9
$SPLINETYPE
 70
     6
  9
$SPLINESEGS
 70
     8
  9
$ATTDIA
 70
     1
  9
$ATTREQ
 70
     1
  9
$HANDLING
 70
     1
  9
$HANDSEED
  5
1256
  9
$SURFTAB1
 70
     6
  9
$SURFTAB2
 70
     6
  9
$SURFTYPE
 70
     6
  9
$SURFU
 70
     6
  9
$SURFV
 70
     6
  9
$UCSNAME
  2

  9
$UCSORG
 10
0.0
 20
0.0
 30
0.0
  9
$UCSXDIR
 10
1.0
 20
0.0
 30
0.0
  9
$UCSYDIR
 10
0.0
 20
1.0
 30
0.0
  9
$PUCSNAME
  2

  9
$PUCSORG
 10
0.0
 20
0.0
 30
0.0
  9
$PUCSXDIR
 10
1.0
 20
0.0
 30
0.0
  9
$PUCSYDIR
 10
0.0
 20
1.0
 30
0.0
  9
$USERI1
 70
     0
  9
$USERI2
 70
     0
  9
$USERI3
 70
     0
  9
$USERI4
 70
     0
  9
$USERI5
 70
     0
  9
$USERR1
 40
0.0
  9
$USERR2
 40
0.0
  9
$USERR3
 40
0.0
  9
$USERR4
 40
0.0
  9
$USERR5
 40
0.0
  9
$WORLDVIEW
 70
     1
  9
$SHADEDGE
 70
     3
  9
$SHADEDIF
 70
    70
  9
$TILEMODE
 70
     1
  9
$MAXACTVP
 70
    64
  9
$PLIMCHECK
 70
     0
  9
$PEXTMIN
 10
1.0000000000000000E+20
 20
1.0000000000000000E+20
 30
1.0000000000000000E+20
  9
$PEXTMAX
 10
-1.0000000000000000E+20
 20
-1.0000000000000000E+20
 30
-1.0000000000000000E+20
  9
$PLIMMIN
 10
0.0
 20
0.0
  9
$PLIMMAX
 10
420.0
 20
297.0
  9
$UNITMODE
 70
     0
  9
$VISRETAIN
 70
     1
  9
$PLINEGEN
 70
     0
  9
$PSLTSCALE
 70
     1
  0
ENDSEC
  0
SECTION
  2
TABLES
  0
TABLE
  2
VPORT
 70
     1
  0
VPORT
  2
*ACTIVE
 70
     0
 10
0.0
 20
0.0
 11
1.0
 21
1.0
 12
-6016969.6021622838452458
 22
-33563362.3663614615797997
 13
0.0
 23
0.0
 14
0.5
 24
0.5
 15
0.5
 25
0.5
 16
0.0
 26
0.0
 36
1.0
 17
0.0
 27
0.0
 37
0.0
 40
500082.1328620911226608
 41
2.0363771343726791
 42
50.0
 43
0.0
 44
0.0
 50
0.0
 51
0.0
 71
     0
 72
  1000
 73
     1
 74
     3
 75
     0
 76
     0
 77
     0
 78
     0
  0
ENDTAB
  0
TABLE
  2
LTYPE
 70
    19
  0
LTYPE
  2
CONTINUOUS
 70
     0
  3
Solid line
 72
    65
 73
     0
 40
0.0
  0
LTYPE
  2
CENTER
 70
     0
  3
Center ____ _ ____ _ ____ _ ____ _ ____ _ ____
 72
    65
 73
     4
 40
2.0
 49
1.25
 49
-0.25
 49
0.25
 49
-0.25
  0
LTYPE
  2
CENTERX2
 70
     0
  3
Center (2x) ________  __  ________  __  ________
 72
    65
 73
     4
 40
3.5
 49
2.5
 49
-0.25
 49
0.5
 49
-0.25
  0
LTYPE
  2
CENTER2
 70
     0
  3
Center (.5x) ____ _ ____ _ ____ _ ____ _ ____
 72
    65
 73
     4
 40
1.0
 49
0.625
 49
-0.125
 49
0.125
 49
-0.125
  0
LTYPE
  2
DASHED
 70
     0
  3
Dashed __ __ __ __ __ __ __ __ __ __ __ __ __ _
 72
    65
 73
     2
 40
0.6
 49
0.5
 49
-0.1
  0
LTYPE
  2
DASHEDX2
 70
     0
  3
Dashed (2x) ____  ____  ____  ____  ____  ____
 72
    65
 73
     2
 40
1.1999999999999991
 49
1.0
 49
-0.2
  0
LTYPE
  2
DASHED2
 70
     0
  3
Dashed (.5x) _ _ _ _ _ _ _ _ _ _ _ _ _ _
 72
    65
 73
     2
 40
0.3
 49
0.25
 49
-0.05
  0
LTYPE
  2
PHANTOM
 70
     0
  3
Phantom ______  __  __  ______  __  __  ______
 72
    65
 73
     6
 40
2.5
 49
1.25
 49
-0.25
 49
0.25
 49
-0.25
 49
0.25
 49
-0.25
  0
LTYPE
  2
PHANTOMX2
 70
     0
  3
Phantom (2x)____________    ____    ____    ____________
 72
    65
 73
     6
 40
4.25
 49
2.5
 49
-0.25
 49
0.5
 49
-0.25
 49
0.5
 49
-0.25
  0
LTYPE
  2
PHANTOM2
 70
     0
  3
Phantom (.5x) ___ _ _ ___ _ _ ___ _ _ ___ _ _ ___
 72
    65
 73
     6
 40
1.25
 49
0.625
 49
-0.125
 49
0.125
 49
-0.125
 49
0.125
 49
-0.125
  0
LTYPE
  2
DASHDOT
 70
     0
  3
Dash dot __ . __ . __ . __ . __ . __ . __ . __
 72
    65
 73
     4
 40
1.399999999999999
 49
1.0
 49
-0.2
 49
0.0
 49
-0.2
  0
LTYPE
  2
DASHDOTX2
 70
     0
  3
Dash dot (2x) ____  .  ____  .  ____  .  ____
 72
    65
 73
     4
 40
2.399999999999999
 49
2.0
 49
-0.2
 49
0.0
 49
-0.2
  0
LTYPE
  2
DASHDOT2
 70
     0
  3
Dash dot (.5x) _ . _ . _ . _ . _ . _ . _ . _
 72
    65
 73
     4
 40
0.7
 49
0.5
 49
-0.1
 49
0.0
 49
-0.1
  0
LTYPE
  2
DOT
 70
     0
  3
Dot .  .  .  .  .  .  .  .  .  .  .  .  .  .  .  .
 72
    65
 73
     2
 40
0.2
 49
0.0
 49
-0.2
  0
LTYPE
  2
DOTX2
 70
     0
  3
Dot (2x) .    .    .    .    .    .    .    . 
 72
    65
 73
     2
 40
0.4
 49
0.0
 49
-0.4
  0
LTYPE
  2
DOT2
 70
     0
  3
Dot (.5) . . . . . . . . . . . . . . . . . . . 
 72
    65
 73
     2
 40
0.1
 49
0.0
 49
-0.1
  0
LTYPE
  2
DIVIDE
 70
     0
  3
Divide __ . . __ . . __ . . __ . . __ . . __
 72
    65
 73
     6
 40
1.6000000000000001
 49
1.0
 49
-0.2
 49
0.0
 49
-0.2
 49
0.0
 49
-0.2
  0
LTYPE
  2
DIVIDEX2
 70
     0
  3
Divide (2x) ____  . .  ____  . .  ____  . .  ____
 72
    65
 73
     6
 40
2.6000000000000001
 49
2.0
 49
-0.2
 49
0.0
 49
-0.2
 49
0.0
 49
-0.2
  0
LTYPE
  2
DIVIDE2
 70
     0
  3
Divide(.5x) _ . _ . _ . _ . _ . _ . _ . _
 72
    65
 73
     6
 40
0.8
 49
0.5
 49
-0.1
 49
0.0
 49
-0.1
 49
0.0
 49
-0.1
  0
ENDTAB
  0
TABLE
  2
LAYER
 70
    21
  0
LAYER
  2
0
 70
     0
 62
     7
  6
CONTINUOUS
  0
LAYER
  2
DEFPOINTS
 70
     0
 62
     7
  6
CONTINUOUS
  0
LAYER
  2
P_AISLE_SIDEWALK
 70
     0
 62
     7
  6
CONTINUOUS
  0
LAYER
  2
P_TRAFFICSIGN
 70
     0
 62
     5
  6
CONTINUOUS
  0
LAYER
  2
P_RAILWAYAREA
 70
     0
 62
     7
  6
CONTINUOUS
  0
LAYER
  2
P_BUILDING_FACILITY
 70
     0
 62
     7
  6
CONTINUOUS
  0
LAYER
  2
P_BUILDING_RESIDENTIAL
 70
     0
 62
     7
  6
CONTINUOUS
  0
LAYER
  2
P_BUILDING_MISC
 70
     0
 62
     7
  6
CONTINUOUS
  0
LAYER
  2
P_WATER
 70
     0
 62
   151
  6
CONTINUOUS
  0
LAYER
  2
L_ROAD_PREFECTURAL
 70
     0
 62
   253
  6
CONTINUOUS
  0
LAYER
  2
L_ROAD_GENERAL
 70
     0
 62
   253
  6
CONTINUOUS
  0
LAYER
  2
L_AISLE_MISC
 70
     0
 62
   253
  6
CONTINUOUS
  0
LAYER
  2
L_ROADSTRUCTURE
 70
     0
 62
   253
  6
CONTINUOUS
  0
LAYER
  2
L_MAPSYMBOL
 70
     0
 62
   254
  6
CONTINUOUS
  0
LAYER
  2
L_GARDENROAD
 70
     0
 62
   253
  6
CONTINUOUS
  0
LAYER
  2
L_ADMIN_TOWN
 70
     0
 62
   230
  6
DASHDOTX2
  0
LAYER
  2
L_GEOMETRY
 70
     0
 62
   254
  6
CONTINUOUS
  0
LAYER
  2
TXT_SITE
 70
     0
 62
     7
  6
CONTINUOUS
  0
LAYER
  2
TXT_BUILDING_NAME
 70
     0
 62
     7
  6
CONTINUOUS
  0
LAYER
  2
TXT_BUILDING_NUMBER
 70
     0
 62
   230
  6
CONTINUOUS
  0
LAYER
  2
TXT_BUILDING_FLOOR
 70
     0
 62
     7
  6
CONTINUOUS
  0
ENDTAB
  0
TABLE
  2
STYLE
 70
    29
  0
STYLE
  2
STANDARD
 70
     0
 40
0.0
 41
1.0
 50
0.0
 71
     0
 42
2.5
  3
txt
  4

  0
STYLE
  2
ANNOTATIVE
 70
     0
 40
0.0
 41
1.0
 50
0.0
 71
     0
 42
0.2
  3
txt
  4

  0
STYLE
  2
OPENSANS
 70
     0
 40
0.0
 41
1.0
 50
0.0
 71
     0
 42
2.5
  3
txt
  4

  0
STYLE
  2
OPENSANS-LIGHT
 70
     0
 40
0.0
 41
1.0
 50
0.0
 71
     0
 42
2.5
  3
txt
  4

  0
STYLE
  2
OPENSANS-LIGHT-ITALIC
 70
     0
 40
0.0
 41
1.0
 50
0.0
 71
     0
 42
2.5
  3
txt
  4

  0
STYLE
  2
OPENSANS-ITALIC
 70
     0
 40
0.0
 41
1.0
 50
0.0
 71
     0
 42
2.5
  3
txt
  4

  0
STYLE
  2
OPENSANS-SEMIBOLD
 70
     0
 40
0.0
 41
1.0
 50
0.0
 71
     0
 42
2.5
  3
txt
  4

  0
STYLE
  2
OPENSANS-SEMIBOLDITALIC
 70
     0
 40
0.0
 41
1.0
 50
0.0
 71
     0
 42
2.5
  3
txt
  4

  0
STYLE
  2
OPENSANS-BOLD
 70
     0
 40
0.0
 41
1.0
 50
0.0
 71
     0
 42
2.5
  3
txt
  4

  0
STYLE
  2
OPENSANS-BOLDITALIC
 70
     0
 40
0.0
 41
1.0
 50
0.0
 71
     0
 42
2.5
  3
txt
  4

  0
STYLE
  2
OPENSANS-EXTRABOLD
 70
     0
 40
0.0
 41
1.0
 50
0.0
 71
     0
 42
2.5
  3
txt
  4

  0
STYLE
  2
OPENSANS-EXTRABOLDITALIC
 70
     0
 40
0.0
 41
1.0
 50
0.0
 71
     0
 42
2.5
  3
txt
  4

  0
STYLE
  2
OPENSANSCONDENSED-BOLD
 70
     0
 40
0.0
 41
1.0
 50
0.0
 71
     0
 42
2.5
  3
txt
  4

  0
STYLE
  2
OPENSANSCONDENSED-LIGHT
 70
     0
 40
0.0
 41
1.0
 50
0.0
 71
     0
 42
2.5
  3
txt
  4

  0
STYLE
  2
OPENSANSCONDENSED-ITALIC
 70
     0
 40
0.0
 41
1.0
 50
0.0
 71
     0
 42
2.5
  3
txt
  4

  0
STYLE
  2
LIBERATIONSANS
 70
     0
 40
0.0
 41
1.0
 50
0.0
 71
     0
 42
2.5
  3
txt
  4

  0
STYLE
  2
LIBERATIONSANS-BOLD
 70
     0
 40
0.0
 41
1.0
 50
0.0
 71
     0
 42
2.5
  3
txt
  4

  0
STYLE
  2
LIBERATIONSANS-BOLDITALIC
 70
     0
 40
0.0
 41
1.0
 50
0.0
 71
     0
 42
2.5
  3
txt
  4

  0
STYLE
  2
LIBERATIONSANS-ITALIC
 70
     0
 40
0.0
 41
1.0
 50
0.0
 71
     0
 42
2.5
  3
txt
  4

  0
STYLE
  2
LIBERATIONSERIF
 70
     0
 40
0.0
 41
1.0
 50
0.0
 71
     0
 42
2.5
  3
txt
  4

  0
STYLE
  2
LIBERATIONSERIF-BOLD
 70
     0
 40
0.0
 41
1.0
 50
0.0
 71
     0
 42
2.5
  3
txt
  4

  0
STYLE
  2
LIBERATIONSERIF-BOLDITALIC
 70
     0
 40
0.0
 41
1.0
 50
0.0
 71
     0
 42
2.5
  3
txt
  4

  0
STYLE
  2
LIBERATIONSERIF-ITALIC
 70
     0
 40
0.0
 41
1.0
 50
0.0
 71
     0
 42
2.5
  3
txt
  4

  0
STYLE
  2
LIBERATIONMONO
 70
     0
 40
0.0
 41
1.0
 50
0.0
 71
     0
 42
2.5
  3
txt
  4

  0
STYLE
  2
LIBERATIONMONO-BOLD
 70
     0
 40
0.0
 41
1.0
 50
0.0
 71
     0
 42
2.5
  3
txt
  4

  0
STYLE
  2
LIBERATIONMONO-BOLDITALIC
 70
     0
 40
0.0
 41
1.0
 50
0.0
 71
     0
 42
2.5
  3
txt
  4

  0
STYLE
  2
LIBERATIONMONO-ITALIC
 70
     0
 40
0.0
 41
1.0
 50
0.0
 71
     0
 42
2.5
  3
txt
  4

  0
STYLE
  2
TATE
 70
     4
 40
0.0
 41
1.0
 50
0.0
 71
     0
 42
2.5
  3
txt
  4
@extfont2
  0
STYLE
  2
YOKO
 70
     0
 40
0.0
 41
1.0
 50
0.0
 71
     0
 42
2.5
  3
txt
  4
extfont2
  0
ENDTAB
  0
TABLE
  2
VIEW
 70
     0
  0
ENDTAB
  0
TABLE
  2
UCS
 70
     0
  0
ENDTAB
  0
TABLE
  2
APPID
 70
     4
  0
APPID
  2
ACAD
 70
     0
  0
APPID
  2
ACADANNOTATIVE
 70
     0
  0
APPID
  2
ACAD_NAV_VCDISPLAY
 70
     0
  0
APPID
  2
ACAD_MLEADERVER
 70
     0
  0
ENDTAB
  0
TABLE
  2
DIMSTYLE
 70
    10
  0
DIMSTYLE
  2
STANDARD
 70
     0
  3

  4

  5

  6

  7

 40
1.0
 41
2.5
 42
0.625
 43
3.75
 44
1.25
 45
0.0
 46
0.0
 47
0.0
 48
0.0
140
2.5
141
2.5
142
0.0
143
0.03937007874
144
1.0
145
0.0
146
1.0
147
0.625
 71
     0
 72
     0
 73
     0
 74
     0
 75
     0
 76
     0
 77
     1
 78
     8
170
     0
171
     3
172
     1
173
     0
174
     0
175
     0
176
     0
177
     0
178
     0
  0
DIMSTYLE
  2
ANNOTATIVE
 70
     0
  3

  4

  5

  6

  7

 40
1.0
 41
0.18
 42
0.0625
 43
0.38
 44
0.18
 45
0.0
 46
0.0
 47
0.0
 48
0.0
140
0.18
141
0.09
142
0.0
143
25.3999999999999986
144
1.0
145
0.0
146
1.0
147
0.09
 71
     0
 72
     0
 73
     1
 74
     1
 75
     0
 76
     0
 77
     0
 78
     0
170
     0
171
     2
172
     0
173
     0
174
     0
175
     0
176
     0
177
     0
178
     0
  0
DIMSTYLE
  2
EZDXF
 70
     0
  3

  4

  5

  6

  7

 40
1.0
 41
0.175
 42
0.125
 43
3.75
 44
0.375
 45
0.0
 46
0.0
 47
0.0
 48
0.0
140
0.25
141
2.5
142
0.0
143
0.03937007874
144
100.0
145
0.0
146
1.0
147
0.1
 71
     0
 72
     0
 73
     0
 74
     0
 75
     0
 76
     0
 77
     1
 78
     8
170
     0
171
     3
172
     1
173
     0
174
     0
175
     0
176
     0
177
     0
178
     0
  0
DIMSTYLE
  2
EZ_M_100_H25_CM
 70
     0
  3

  4

  5

  6

  7

 40
1.0
 41
0.25
 42
0.125
 43
3.75
 44
0.375
 45
0.0
 46
0.0
 47
0.0
 48
0.0
140
0.25
141
2.5
142
0.125
143
0.03937007874
144
100.0
145
0.0
146
1.0
147
0.1
 71
     0
 72
     0
 73
     0
 74
     0
 75
     0
 76
     0
 77
     1
 78
     8
170
     0
171
     3
172
     1
173
     0
174
     0
175
     0
176
     0
177
     0
178
     0
  0
DIMSTYLE
  2
EZ_M_50_H25_CM
 70
     0
  3

  4

  5

  6

  7

 40
1.0
 41
0.125
 42
0.0625
 43
3.75
 44
0.1875
 45
0.0
 46
0.0
 47
0.0
 48
0.0
140
0.125
141
2.5
142
0.0625
143
0.03937007874
144
100.0
145
0.0
146
1.0
147
0.05
 71
     0
 72
     0
 73
     0
 74
     0
 75
     0
 76
     0
 77
     1
 78
     8
170
     0
171
     3
172
     1
173
     0
174
     0
175
     0
176
     0
177
     0
178
     0
  0
DIMSTYLE
  2
EZ_M_25_H25_CM
 70
     0
  3

  4

  5

  6

  7

 40
1.0
 41
0.0625
 42
0.03125
 43
3.75
 44
0.09375
 45
0.0
 46
0.0
 47
0.0
 48
0.0
140
0.0625
141
2.5
142
0.03125
143
0.03937007874
144
100.0
145
0.0
146
1.0
147
0.025
 71
     0
 72
     0
 73
     0
 74
     0
 75
     0
 76
     0
 77
     1
 78
     8
170
     0
171
     3
172
     1
173
     0
174
     0
175
     0
176
     0
177
     0
178
     0
  0
DIMSTYLE
  2
EZ_M_20_H25_CM
 70
     0
  3

  4

  5

  6

  7

 40
1.0
 41
0.05
 42
0.025
 43
3.75
 44
0.075
 45
0.0
 46
0.0
 47
0.0
 48
0.0
140
0.05
141
2.5
142
0.025
143
0.03937007874
144
100.0
145
0.0
146
1.0
147
0.02
 71
     0
 72
     0
 73
     0
 74
     0
 75
     0
 76
     0
 77
     1
 78
     8
170
     0
171
     3
172
     1
173
     0
174
     0
175
     0
176
     0
177
     0
178
     0
  0
DIMSTYLE
  2
EZ_M_10_H25_CM
 70
     0
  3

  4

  5

  6

  7

 40
1.0
 41
0.025
 42
0.0125
 43
3.75
 44
0.0375
 45
0.0
 46
0.0
 47
0.0
 48
0.0
140
0.025
141
2.5
142
0.0125
143
0.03937007874
144
100.0
145
0.0
146
1.0
147
0.01
 71
     0
 72
     0
 73
     0
 74
     0
 75
     0
 76
     0
 77
     1
 78
     8
170
     0
171
     3
172
     1
173
     0
174
     0
175
     0
176
     0
177
     0
178
     0
  0
DIMSTYLE
  2
EZ_M_5_H25_CM
 70
     0
  3

  4

  5

  6

  7

 40
1.0
 41
0.0125
 42
0.00625
 43
3.75
 44
0.01875
 45
0.0
 46
0.0
 47
0.0
 48
0.0
140
0.0125
141
2.5
142
0.00625
143
0.03937007874
144
100.0
145
0.0
146
1.0
147
0.005
 71
     0
 72
     0
 73
     0
 74
     0
 75
     0
 76
     0
 77
     1
 78
     8
170
     0
171
     3
172
     1
173
     0
174
     0
175
     0
176
     0
177
     0
178
     0
  0
DIMSTYLE
  2
EZ_M_1_H25_CM
 70
     0
  3

  4

  5

  6

  7

 40
1.0
 41
0.0025
 42
0.00125
 43
3.75
 44
0.00375
 45
0.0
 46
0.0
 47
0.0
 48
0.0
140
0.0025
141
2.5
142
0.00125
143
0.03937007874
144
100.0
145
0.0
146
1.0
147
0.001
 71
     0
 72
     0
 73
     0
 74
     0
 75
     0
 76
     0
 77
     1
 78
     8
170
     0
171
     3
172
     1
173
     0
174
     0
175
     0
176
     0
177
     0
178
     0
  0
ENDTAB
  0
ENDSEC
  0
SECTION
  2
BLOCKS
  0
BLOCK
  8
0
  2
$MODEL_SPACE
 70
     0
 10
0.0
 20
0.0
 30
0.0
  3
$MODEL_SPACE
  1

  0
ENDBLK
  5
992
  8
0
  0
BLOCK
 67
     1
  8
0
  2
$PAPER_SPACE
 70
     0
 10
0.0
 20
0.0
 30
0.0
  3
$PAPER_SPACE
  1

  0
ENDBLK
  5
98E
 67
     1
  8
0
  0
BLOCK
  8
0
  2
_ARCHTICK
 70
     0
 10
0.0
 20
0.0
 30
0.0
  3
_ARCHTICK
  1

  0
POLYLINE
  5
75
  8
0
  6
BYBLOCK
 62
     0
 66
     1
 10
0.0
 20
0.0
 30
0.0
 40
0.15
 41
0.15
  0
VERTEX
  5
ABD
  8
0
  6
BYBLOCK
 62
     0
 10
-0.5
 20
-0.5000000000000001
 30
0.0
  0
VERTEX
  5
ABE
  8
0
  6
BYBLOCK
 62
     0
 10
0.5000000000000001
 20
0.5
 30
0.0
  0
SEQEND
  5
ABF
  8
0
  6
BYBLOCK
 62
     0
  0
ENDBLK
  5
74
  8
0
  0
BLOCK
  8
0
  2
_CLOSEDFILLED
 70
     0
 10
0.0
 20
0.0
 30
0.0
  3
_CLOSEDFILLED
  1

  0
SOLID
  5
7C
  8
0
  6
BYBLOCK
 62
     0
 10
-1.0
 20
0.1643989837240255
 30
0.0
 11
0.0
 21
0.0
 31
0.0
 12
-1.0
 22
-0.1643989837240255
 32
0.0
 13
-1.0
 23
-0.1643989837240255
 33
0.0
  0
ENDBLK
  5
7B
  8
0
  0
ENDSEC
  0
SECTION
  2
ENTITIES
  0
POLYLINE
  5
9A
  8
P_AISLE_SIDEWALK
 66
     1
 10
0.0
 20
0.0
 30
0.0
 70
     1
  0
VERTEX
  5
AC0
  8
P_AISLE_SIDEWALK
 10
-6053127.0331216473132372
 20
-33578061.6489818096160889
 30
0.0
  0
VERTEX
  5
AC1
  8
P_AISLE_SIDEWALK
 10
-6057456.6324304789304733
 20
-33586607.6688626408576965
 30
0.0
  0
VERTEX
  5
AC2
  8
P_AISLE_SIDEWALK
 10
-6057411.3249170864000916
 20
-33586909.7834962084889412
 30
0.0
  0
VERTEX
  5
AC3
  8
P_AISLE_SIDEWALK
 10
-6057411.5308355372399092
 20
-33587211.867106519639492
 30
0.0
  0
VERTEX
  5
AC4
  8
P_AISLE_SIDEWALK
 10
-6057381.3944629766047001
 20
-33587513.9713980704545975
 30
0.0
  0
VERTEX
  5
AC5
  8
P_AISLE_SIDEWALK
 10
-6057282.9827857278287411
 20
-33587808.5701373815536499
 30
0.0
  0
VERTEX
  5
AC6
  8
P_AISLE_SIDEWALK
 10
-6057237.6340800067409873
 20
-33588050.2680480405688286
 30
0.0
  0
VERTEX
  5
AC7
  8
P_AISLE_SIDEWALK
 10
-6057139.2687215562909842
 20
-33588412.8355948701500893
 30
0.0
  0
VERTEX
  5
AC8
  8
P_AISLE_SIDEWALK
 10
-6057063.5983045669272542
 20
-33588684.7625485509634018
 30
0.0
  0
VERTEX
  5
AC9
  8
P_AISLE_SIDEWALK
 10
-6056896.9009951576590538
 20
-33588956.7515451833605766
 30
0.0
  0
VERTEX
  5
ACA
  8
P_AISLE_SIDEWALK
 10
-6056768.1315488899126649
 20
-33589228.714687816798687
 30
0.0
  0
VERTEX
  5
ACB
  8
P_AISLE_SIDEWALK
 10
-6056480.2245958233252168
 20
-33589734.9011944308876991
 30
0.0
  0
VERTEX
  5
ACC
  8
P_AISLE_SIDEWALK
 10
-6056305.9210858521983027
 20
-33589976.6869892776012421
 30
0.0
  0
VERTEX
  5
ACD
  8
P_AISLE_SIDEWALK
 10
-6056161.9598689107224345
 20
-33590218.4521007984876633
 30
0.0
  0
VERTEX
  5
ACE
  8
P_AISLE_SIDEWALK
 10
-6055517.6388813490048051
 20
-33590883.4754398986697197
 30
0.0
  0
VERTEX
  5
ACF
  8
P_AISLE_SIDEWALK
 10
-6055275.0445601912215352
 20
-33591095.099374882876873
 30
0.0
  0
VERTEX
  5
AD0
  8
P_AISLE_SIDEWALK
 10
-6055032.4090577187016606
 20
-33591246.3065820187330246
 30
0.0
  0
VERTEX
  5
AD1
  8
P_AISLE_SIDEWALK
 10
-5951094.9191344687715173
 20
-33636727.2576273307204247
 30
0.0
  0
VERTEX
  5
AD2
  8
P_AISLE_SIDEWALK
 10
-5945694.911585358902812
 20
-33638150.6657721325755119
 30
0.0
  0
VERTEX
  5
AD3
  8
P_AISLE_SIDEWALK
 10
-5943287.3924114489927888
 20
-33633847.5832574293017387
 30
0.0
  0
VERTEX
  5
AD4
  8
P_AISLE_SIDEWALK
 10
-5950554.4491657465696335
 20
-33633903.1367687210440636
 30
0.0
  0
VERTEX
  5
AD5
  8
P_AISLE_SIDEWALK
 10
-5956022.0810156660154462
 20
-33631520.5645120888948441
 30
0.0
  0
VERTEX
  5
AD6
  8
P_AISLE_SIDEWALK
 10
-5956954.8275466505438089
 20
-33631097.0220858976244926
 30
0.0
  0
VERTEX
  5
AD7
  8
P_AISLE_SIDEWALK
 10
-5968102.3972536707296968
 20
-33626210.8902122378349304
 30
0.0
  0
VERTEX
  5
AD8
  8
P_AISLE_SIDEWALK
 10
-5975268.6921348264440894
 20
-33623079.5078529864549637
 30
0.0
  0
VERTEX
  5
AD9
  8
P_AISLE_SIDEWALK
 10
-5989988.0049717500805855
 20
-33616627.6627248972654343
 30
0.0
  0
VERTEX
  5
ADA
  8
P_AISLE_SIDEWALK
 10
-5991557.7602557800710201
 20
-33615939.3639777675271034
 30
0.0
  0
VERTEX
  5
ADB
  8
P_AISLE_SIDEWALK
 10
-5993499.1025482621043921
 20
-33615092.2203773185610771
 30
0.0
  0
VERTEX
  5
ADC
  8
P_AISLE_SIDEWALK
 10
-6001006.6292402250692248
 20
-33611809.5451530590653419
 30
0.0
  0
VERTEX
  5
ADD
  8
P_AISLE_SIDEWALK
 10
-6004866.5530775608494878
 20
-33610115.2687622234225273
 30
0.0
  0
VERTEX
  5
ADE
  8
P_AISLE_SIDEWALK
 10
-6010364.4828121773898602
 20
-33607709.9861715734004974
 30
0.0
  0
VERTEX
  5
ADF
  8
P_AISLE_SIDEWALK
 10
-6011342.7378018833696842
 20
-33607286.4072335213422775
 30
0.0
  0
VERTEX
  5
AE0
  8
P_AISLE_SIDEWALK
 10
-6013769.3904480254277587
 20
-33606197.2638839483261108
 30
0.0
  0
VERTEX
  5
AE1
  8
P_AISLE_SIDEWALK
 10
-6018827.4894567215815187
 20
-33603996.180201530456543
 30
0.0
  0
VERTEX
  5
AE2
  8
P_AISLE_SIDEWALK
 10
-6026979.6081699952483177
 20
-33600471.3793344423174858
 30
0.0
  0
VERTEX
  5
AE3
  8
P_AISLE_SIDEWALK
 10
-6029065.013429032638669
 20
-33599541.057194210588932
 30
0.0
  0
VERTEX
  5
AE4
  8
P_AISLE_SIDEWALK
 10
-6031218.683361578732729
 20
-33598603.1361353397369385
 30
0.0
  0
VERTEX
  5
AE5
  8
P_AISLE_SIDEWALK
 10
-6032985.5907424166798592
 20
-33597816.5190107300877571
 30
0.0
  0
VERTEX
  5
AE6
  8
P_AISLE_SIDEWALK
 10
-6034145.8411016827449203
 20
-33597309.7409593388438225
 30
0.0
  0
VERTEX
  5
AE7
  8
P_AISLE_SIDEWALK
 10
-6036845.5280750766396523
 20
-33596159.989128477871418
 30
0.0
  0
VERTEX
  5
AE8
  8
P_AISLE_SIDEWALK
 10
-6039150.8514946512877941
 20
-33595138.8900842815637589
 30
0.0
  0
VERTEX
  5
AE9
  8
P_AISLE_SIDEWALK
 10
-6041774.6813852628692985
 20
-33593989.1882994994521141
 30
0.0
  0
VERTEX
  5
AEA
  8
P_AISLE_SIDEWALK
 10
-6047318.0635288404300809
 20
-33591523.4350983202457428
 30
0.0
  0
VERTEX
  5
AEB
  8
P_AISLE_SIDEWALK
 10
-6049752.3341847229748964
 20
-33590494.6934447512030602
 30
0.0
  0
VERTEX
  5
AEC
  8
P_AISLE_SIDEWALK
 10
-6052990.412795121781528
 20
-33589080.2468550801277161
 30
0.0
  0
VERTEX
  5
AED
  8
P_AISLE_SIDEWALK
 10
-6054194.9188786186277866
 20
-33586730.7251622080802917
 30
0.0
  0
VERTEX
  5
AEE
  8
P_AISLE_SIDEWALK
 10
-6054293.4284070720896125
 20
-33586579.6161720976233482
 30
0.0
  0
VERTEX
  5
AEF
  8
P_AISLE_SIDEWALK
 10
-6050107.9784478126093745
 20
-33578063.70498938113451
 30
0.0
  0
VERTEX
  5
AF0
  8
P_AISLE_SIDEWALK
 10
-6043032.2851250572130084
 20
-33563745.9735134392976761
 30
0.0
  0
VERTEX
  5
AF1
  8
P_AISLE_SIDEWALK
 10
-6035333.7414132347330451
 20
-33548164.1193205788731575
 30
0.0
  0
VERTEX
  5
AF2
  8
P_AISLE_SIDEWALK
 10
-6029120.1932145962491632
 20
-33535526.4852141290903091
 30
0.0
  0
VERTEX
  5
AF3
  8
P_AISLE_SIDEWALK
 10
-6027152.9290970368310809
 20
-33531676.3594046197831631
 30
0.0
  0
VERTEX
  5
AF4
  8
P_AISLE_SIDEWALK
 10
-6022876.3461679751053452
 20
-33522926.6265102103352547
 30
0.0
  0
VERTEX
  5
AF5
  8
P_AISLE_SIDEWALK
 10
-6020711.5162323610857129
 20
-33518563.1050575897097588
 30
0.0
  0
VERTEX
  5
AF6
  8
P_AISLE_SIDEWALK
 10
-6017787.0787684628739953
 20
-33512636.8576730005443096
 30
0.0
  0
VERTEX
  5
AF7
  8
P_AISLE_SIDEWALK
 10
-6017437.6748879114165902
 20
-33511942.3210270591080189
 30
0.0
  0
VERTEX
  5
AF8
  8
P_AISLE_SIDEWALK
 10
-6014636.1995298834517598
 20
-33508364.6250025890767574
 30
0.0
  0
VERTEX
  5
AF9
  8
P_AISLE_SIDEWALK
 10
-6008171.8969765091314912
 20
-33495002.1645188592374325
 30
0.0
  0
VERTEX
  5
AFA
  8
P_AISLE_SIDEWALK
 10
-6007556.8848540913313627
 20
-33494134.1137331016361713
 30
0.0
  0
VERTEX
  5
AFB
  8
P_AISLE_SIDEWALK
 10
-6006555.252680292353034
 20
-33493621.262775219976902
 30
0.0
  0
VERTEX
  5
AFC
  8
P_AISLE_SIDEWALK
 10
-6004886.1789867775514722
 20
-33493229.692902609705925
 30
0.0
  0
VERTEX
  5
AFD
  8
P_AISLE_SIDEWALK
 10
-6002989.6223147995769978
 20
-33492959.1065325699746609
 30
0.0
  0
VERTEX
  5
AFE
  8
P_AISLE_SIDEWALK
 10
-6001373.8309559533372521
 20
-33492839.3678091689944267
 30
0.0
  0
VERTEX
  5
AFF
  8
P_AISLE_SIDEWALK
 10
-6000243.6130905225872993
 20
-33492870.3385925106704235
 30
0.0
  0
VERTEX
  5
B00
  8
P_AISLE_SIDEWALK
 10
-5998893.640281593427062
 20
-33493233.7404629401862621
 30
0.0
  0
VERTEX
  5
B01
  8
P_AISLE_SIDEWALK
 10
-5995040.8013474820181727
 20
-33494112.3591460511088371
 30
0.0
  0
VERTEX
  5
B02
  8
P_AISLE_SIDEWALK
 10
-5974618.2078573182225227
 20
-33501768.6200051717460155
 30
0.0
  0
VERTEX
  5
B03
  8
P_AISLE_SIDEWALK
 10
-5962052.166898294351995
 20
-33506444.1239209696650505
 30
0.0
  0
VERTEX
  5
B04
  8
P_AISLE_SIDEWALK
 10
-5945337.8861918626353145
 20
-33512685.6262330189347267
 30
0.0
  0
VERTEX
  5
B05
  8
P_AISLE_SIDEWALK
 10
-5915344.6501199016347528
 20
-33523897.5337035581469536
 30
0.0
  0
VERTEX
  5
B06
  8
P_AISLE_SIDEWALK
 10
-5906486.9635783722624183
 20
-33527211.1504659987986088
 30
0.0
  0
VERTEX
  5
B07
  8
P_AISLE_SIDEWALK
 10
-5906484.4838672867044806
 20
-33523480.5219401381909847
 30
0.0
  0
VERTEX
  5
B08
  8
P_AISLE_SIDEWALK
 10
-5935029.1800450338050723
 20
-33512692.5174483582377434
 30
0.0
  0
VERTEX
  5
B09
  8
P_AISLE_SIDEWALK
 10
-5989100.0829356070607901
 20
-33492220.842394158244133
 30
0.0
  0
VERTEX
  5
B0A
  8
P_AISLE_SIDEWALK
 10
-5994249.8367187026888132
 20
-33491039.2761743888258934
 30
0.0
  0
VERTEX
  5
B0B
  8
P_AISLE_SIDEWALK
 10
-5998004.0681323716416955
 20
-33490168.2762732915580273
 30
0.0
  0
VERTEX
  5
B0C
  8
P_AISLE_SIDEWALK
 10
-5999255.510730030015111
 20
-33489925.7711931690573692
 30
0.0
  0
VERTEX
  5
B0D
  8
P_AISLE_SIDEWALK
 10
-6002691.5332815712317824
 20
-33489621.3753996714949608
 30
0.0
  0
VERTEX
  5
B0E
  8
P_AISLE_SIDEWALK
 10
-6004557.6860357234254479
 20
-33489801.3597773313522339
 30
0.0
  0
VERTEX
  5
B0F
  8
P_AISLE_SIDEWALK
 10
-6007387.7014451771974564
 20
-33490728.3286594711244106
 30
0.0
  0
VERTEX
  5
B10
  8
P_AISLE_SIDEWALK
 10
-6009498.8527273079380393
 20
-33494253.6307483986020088
 30
0.0
  0
VERTEX
  5
B11
  8
P_AISLE_SIDEWALK
 10
-6012376.9685398489236832
 20
-33499001.81853212043643
 30
0.0
  0
VERTEX
  5
B12
  8
P_AISLE_SIDEWALK
 10
-6016333.2307299971580505
 20
-33505229.4445938691496849
 30
0.0
  0
VERTEX
  5
B13
  8
P_AISLE_SIDEWALK
 10
-6020237.1980515522882342
 20
-33512635.1980691701173782
 30
0.0
  0
VERTEX
  5
B14
  8
P_AISLE_SIDEWALK
 10
-6022743.7787334183230996
 20
-33517595.0868230611085892
 30
0.0
  0
VERTEX
  5
B15
  8
P_AISLE_SIDEWALK
 10
-6045929.9635253744199872
 20
-33563740.2264356464147568
 30
0.0
  0
VERTEX
  5
B16
  8
P_AISLE_SIDEWALK
 10
-6053127.0331216473132372
 20
-33578061.6489818096160889
 30
0.0
  0
SEQEND
  5
B17
  8
P_AISLE_SIDEWALK
  0
POLYLINE
  5
F3
  8
P_AISLE_SIDEWALK
 66
     1
 10
0.0
 20
0.0
 30
0.0
 70
     1
  0
VERTEX
  5
B18
  8
P_AISLE_SIDEWALK
 10
-6077681.5054370360448956
 20
-33578044.8890326097607613
 30
0.0
  0
VERTEX
  5
B19
  8
P_AISLE_SIDEWALK
 10
-6093947.7559008412063122
 20
-33571055.6141437664628029
 30
0.0
  0
VERTEX
  5
B1A
  8
P_AISLE_SIDEWALK
 10
-6095034.1224653515964746
 20
-33573433.7786748707294464
 30
0.0
  0
VERTEX
  5
B1B
  8
P_AISLE_SIDEWALK
 10
-6095330.5136110363528132
 20
-33574241.649429552257061
 30
0.0
  0
VERTEX
  5
B1C
  8
P_AISLE_SIDEWALK
 10
-6086693.1560835978016257
 20
-33578038.7210028395056725
 30
0.0
  0
VERTEX
  5
B1D
  8
P_AISLE_SIDEWALK
 10
-6066832.5023009516298771
 20
-33586752.3145841509103775
 30
0.0
  0
VERTEX
  5
B1E
  8
P_AISLE_SIDEWALK
 10
-6066119.664753251709044
 20
-33587054.8849742710590363
 30
0.0
  0
VERTEX
  5
B1F
  8
P_AISLE_SIDEWALK
 10
-6065952.8440284179523587
 20
-33587145.6239770799875259
 30
0.0
  0
VERTEX
  5
B20
  8
P_AISLE_SIDEWALK
 10
-6065801.1532021947205067
 20
-33587175.9358972311019897
 30
0.0
  0
VERTEX
  5
B21
  8
P_AISLE_SIDEWALK
 10
-6065581.1922247791662812
 20
-33587206.2944156304001808
 30
0.0
  0
VERTEX
  5
B22
  8
P_AISLE_SIDEWALK
 10
-6065315.6971943276003003
 20
-33587206.4756330102682114
 30
0.0
  0
VERTEX
  5
B23
  8
P_AISLE_SIDEWALK
 10
-6064921.2061990164220333
 20
-33587146.3281348720192909
 30
0.0
  0
VERTEX
  5
B24
  8
P_AISLE_SIDEWALK
 10
-6064769.453518720343709
 20
-33587086.0149547383189201
 30
0.0
  0
VERTEX
  5
B25
  8
P_AISLE_SIDEWALK
 10
-6064602.5090818209573627
 20
-33586995.5037654191255569
 30
0.0
  0
VERTEX
  5
B26
  8
P_AISLE_SIDEWALK
 10
-6064352.0821251375600696
 20
-33586844.6327962875366211
 30
0.0
  0
VERTEX
  5
B27
  8
P_AISLE_SIDEWALK
 10
-6064207.8737961016595364
 20
-33586723.8977098166942596
 30
0.0
  0
VERTEX
  5
B28
  8
P_AISLE_SIDEWALK
 10
-6063843.4571396298706532
 20
-33586271.020763210952282
 30
0.0
  0
VERTEX
  5
B29
  8
P_AISLE_SIDEWALK
 10
-6059589.9340772153809667
 20
-33578057.2442303523421288
 30
0.0
  0
VERTEX
  5
B2A
  8
P_AISLE_SIDEWALK
 10
-6052146.3261834383010864
 20
-33563739.7708582505583763
 30
0.0
  0
VERTEX
  5
B2B
  8
P_AISLE_SIDEWALK
 10
-6042059.5162450205534697
 20
-33544338.2959655299782753
 30
0.0
  0
VERTEX
  5
B2C
  8
P_AISLE_SIDEWALK
 10
-6037957.8671902352944016
 20
-33536305.880398090928793
 30
0.0
  0
VERTEX
  5
B2D
  8
P_AISLE_SIDEWALK
 10
-6035641.2135080406442285
 20
-33531791.428149089217186
 30
0.0
  0
VERTEX
  5
B2E
  8
P_AISLE_SIDEWALK
 10
-6034144.8651110678911209
 20
-33528847.2099682092666626
 30
0.0
  0
VERTEX
  5
B2F
  8
P_AISLE_SIDEWALK
 10
-6031858.5573774622753263
 20
-33524332.7360834516584873
 30
0.0
  0
VERTEX
  5
B30
  8
P_AISLE_SIDEWALK
 10
-6030012.82677629776299
 20
-33520724.1886108107864857
 30
0.0
  0
VERTEX
  5
B31
  8
P_AISLE_SIDEWALK
 10
-6029914.0920849470421672
 20
-33520543.010413508862257
 30
0.0
  0
VERTEX
  5
B32
  8
P_AISLE_SIDEWALK
 10
-6029815.2754059517756104
 20
-33520241.0021395906805992
 30
0.0
  0
VERTEX
  5
B33
  8
P_AISLE_SIDEWALK
 10
-6029845.3919865973293781
 20
-33519908.6988418512046337
 30
0.0
  0
VERTEX
  5
B34
  8
P_AISLE_SIDEWALK
 10
-6029890.7820875905454159
 20
-33519727.4228445999324322
 30
0.0
  0
VERTEX
  5
B35
  8
P_AISLE_SIDEWALK
 10
-6029966.5142432134598494
 20
-33519546.1262560784816742
 30
0.0
  0
VERTEX
  5
B36
  8
P_AISLE_SIDEWALK
 10
-6030087.7799818469211459
 20
-33519395.0063008107244968
 30
0.0
  0
VERTEX
  5
B37
  8
P_AISLE_SIDEWALK
 10
-6030231.8022573757916689
 20
-33519243.8709022700786591
 30
0.0
  0
VERTEX
  5
B38
  8
P_AISLE_SIDEWALK
 10
-6030360.6945012360811234
 20
-33519153.1608344800770283
 30
0.0
  0
VERTEX
  5
B39
  8
P_AISLE_SIDEWALK
 10
-6030648.8825378734618425
 20
-33519062.3426572903990746
 30
0.0
  0
VERTEX
  5
B3A
  8
P_AISLE_SIDEWALK
 10
-6033033.902585182338953
 20
-33523727.7875289395451546
 30
0.0
  0
VERTEX
  5
B3B
  8
P_AISLE_SIDEWALK
 10
-6035320.2107616849243641
 20
-33528242.2611148692667484
 30
0.0
  0
VERTEX
  5
B3C
  8
P_AISLE_SIDEWALK
 10
-6036846.9220674699172378
 20
-33531216.666007649153471
 30
0.0
  0
VERTEX
  5
B3D
  8
P_AISLE_SIDEWALK
 10
-6039110.4569846959784627
 20
-33535700.9465136006474495
 30
0.0
  0
VERTEX
  5
B3E
  8
P_AISLE_SIDEWALK
 10
-6043234.8634107289835811
 20
-33543733.3460832796990871
 30
0.0
  0
VERTEX
  5
B3F
  8
P_AISLE_SIDEWALK
 10
-6045547.7785898288711905
 20
-33542742.4761564806103706
 30
0.0
  0
VERTEX
  5
B40
  8
P_AISLE_SIDEWALK
 10
-6056401.8184353979304433
 20
-33563733.0954906865954399
 30
0.0
  0
VERTEX
  5
B41
  8
P_AISLE_SIDEWALK
 10
-6063807.5079451370984316
 20
-33578054.3672337383031845
 30
0.0
  0
VERTEX
  5
B42
  8
P_AISLE_SIDEWALK
 10
-6066344.4169851075857878
 20
-33582931.2883430793881416
 30
0.0
  0
VERTEX
  5
B43
  8
P_AISLE_SIDEWALK
 10
-6077681.5054370360448956
 20
-33578044.8890326097607613
 30
0.0
  0
SEQEND
  5
B44
  8
P_AISLE_SIDEWALK
  0
POLYLINE
  5
121
  8
P_AISLE_SIDEWALK
 66
     1
 10
0.0
 20
0.0
 30
0.0
 70
     1
  0
VERTEX
  5
B45
  8
P_AISLE_SIDEWALK
 10
-5948817.3868563706055284
 20
-33497994.8846330307424068
 30
0.0
  0
VERTEX
  5
B46
  8
P_AISLE_SIDEWALK
 10
-5949621.2471817629411817
 20
-33497692.2711116001009941
 30
0.0
  0
VERTEX
  5
B47
  8
P_AISLE_SIDEWALK
 10
-5949182.2541218725964427
 20
-33499134.9747425988316536
 30
0.0
  0
VERTEX
  5
B48
  8
P_AISLE_SIDEWALK
 10
-5934333.7293247058987617
 20
-33504952.3016560785472393
 30
0.0
  0
VERTEX
  5
B49
  8
P_AISLE_SIDEWALK
 10
-5932497.4177108751609921
 20
-33504024.6461717411875725
 30
0.0
  0
VERTEX
  5
B4A
  8
P_AISLE_SIDEWALK
 10
-5948817.3868563706055284
 20
-33497994.8846330307424068
 30
0.0
  0
SEQEND
  5
B4B
  8
P_AISLE_SIDEWALK
  0
POLYLINE
  5
129
  8
P_AISLE_SIDEWALK
 66
     1
 10
0.0
 20
0.0
 30
0.0
 70
     1
  0
VERTEX
  5
B4C
  8
P_AISLE_SIDEWALK
 10
-5957917.7643255963921547
 20
-33494681.0627252906560898
 30
0.0
  0
VERTEX
  5
B4D
  8
P_AISLE_SIDEWALK
 10
-5957554.5466938363388181
 20
-33496002.8858384899795055
 30
0.0
  0
VERTEX
  5
B4E
  8
P_AISLE_SIDEWALK
 10
-5953482.2240555118769407
 20
-33497629.2700873501598835
 30
0.0
  0
VERTEX
  5
B4F
  8
P_AISLE_SIDEWALK
 10
-5952229.9950558291748166
 20
-33496701.2273226082324982
 30
0.0
  0
VERTEX
  5
B50
  8
P_AISLE_SIDEWALK
 10
-5957917.7643255963921547
 20
-33494681.0627252906560898
 30
0.0
  0
SEQEND
  5
B51
  8
P_AISLE_SIDEWALK
  0
POLYLINE
  5
130
  8
P_AISLE_SIDEWALK
 66
     1
 10
0.0
 20
0.0
 30
0.0
 70
     1
  0
VERTEX
  5
B52
  8
P_AISLE_SIDEWALK
 10
-5978438.9214227441698313
 20
-33486956.8068980202078819
 30
0.0
  0
VERTEX
  5
B53
  8
P_AISLE_SIDEWALK
 10
-5977726.9017308996990323
 20
-33488467.6626124195754528
 30
0.0
  0
VERTEX
  5
B54
  8
P_AISLE_SIDEWALK
 10
-5971963.4839635612443089
 20
-33490782.4142205193638802
 30
0.0
  0
VERTEX
  5
B55
  8
P_AISLE_SIDEWALK
 10
-5970339.6259112628176808
 20
-33489945.2463494911789894
 30
0.0
  0
VERTEX
  5
B56
  8
P_AISLE_SIDEWALK
 10
-5974662.2630529729649425
 20
-33488318.6860433183610439
 30
0.0
  0
VERTEX
  5
B57
  8
P_AISLE_SIDEWALK
 10
-5978438.9214227441698313
 20
-33486956.8068980202078819
 30
0.0
  0
SEQEND
  5
B58
  8
P_AISLE_SIDEWALK
  0
POLYLINE
  5
138
  8
P_AISLE_SIDEWALK
 66
     1
 10
0.0
 20
0.0
 30
0.0
 70
     1
  0
VERTEX
  5
B59
  8
P_AISLE_SIDEWALK
 10
-5959340.9299535350874066
 20
-33490345.3273244686424732
 30
0.0
  0
VERTEX
  5
B5A
  8
P_AISLE_SIDEWALK
 10
-5958142.9644122822210193
 20
-33491154.1821811906993389
 30
0.0
  0
VERTEX
  5
B5B
  8
P_AISLE_SIDEWALK
 10
-5954595.3786646658554673
 20
-33483453.6390409283339977
 30
0.0
  0
VERTEX
  5
B5C
  8
P_AISLE_SIDEWALK
 10
-5956043.7808439489454031
 20
-33482818.3101148717105389
 30
0.0
  0
VERTEX
  5
B5D
  8
P_AISLE_SIDEWALK
 10
-5959340.9299535350874066
 20
-33490345.3273244686424732
 30
0.0
  0
SEQEND
  5
B5E
  8
P_AISLE_SIDEWALK
  0
POLYLINE
  5
13F
  8
P_AISLE_SIDEWALK
 66
     1
 10
0.0
 20
0.0
 30
0.0
 70
     1
  0
VERTEX
  5
B5F
  8
P_AISLE_SIDEWALK
 10
-6026792.1582194166257977
 20
-33514224.2020800188183784
 30
0.0
  0
VERTEX
  5
B60
  8
P_AISLE_SIDEWALK
 10
-6025987.0135806128382683
 20
-33512631.3007454611361027
 30
0.0
  0
VERTEX
  5
B61
  8
P_AISLE_SIDEWALK
 10
-6014182.8385792067274451
 20
-33488563.8935009315609932
 30
0.0
  0
VERTEX
  5
B62
  8
P_AISLE_SIDEWALK
 10
-6013909.3521284572780132
 20
-33487959.9279126189649105
 30
0.0
  0
VERTEX
  5
B63
  8
P_AISLE_SIDEWALK
 10
-6013909.2499081315472722
 20
-33487808.8903112001717091
 30
0.0
  0
VERTEX
  5
B64
  8
P_AISLE_SIDEWALK
 10
-6013939.4283051332458854
 20
-33487567.2096141204237938
 30
0.0
  0
VERTEX
  5
B65
  8
P_AISLE_SIDEWALK
 10
-6013984.7981168450787663
 20
-33487355.7261664010584354
 30
0.0
  0
VERTEX
  5
B66
  8
P_AISLE_SIDEWALK
 10
-6014083.3276695171371102
 20
-33487234.8293449617922306
 30
0.0
  0
VERTEX
  5
B67
  8
P_AISLE_SIDEWALK
 10
-6014257.6916419016197324
 20
-33487083.673662431538105
 30
0.0
  0
VERTEX
  5
B68
  8
P_AISLE_SIDEWALK
 10
-6014378.9572027707472444
 20
-33486932.553913950920105
 30
0.0
  0
VERTEX
  5
B69
  8
P_AISLE_SIDEWALK
 10
-6014621.6109910923987627
 20
-33486811.5595354214310646
 30
0.0
  0
VERTEX
  5
B6A
  8
P_AISLE_SIDEWALK
 10
-6014773.3002742324024439
 20
-33486781.2493267916142941
 30
0.0
  0
VERTEX
  5
B6B
  8
P_AISLE_SIDEWALK
 10
-6015069.0933530572801828
 20
-33486720.634034838527441
 30
0.0
  0
VERTEX
  5
B6C
  8
P_AISLE_SIDEWALK
 10
-6027822.7066644821316004
 20
-33512630.0556964911520481
 30
0.0
  0
VERTEX
  5
B6D
  8
P_AISLE_SIDEWALK
 10
-6028810.2522833915427327
 20
-33514736.3611807711422443
 30
0.0
  0
VERTEX
  5
B6E
  8
P_AISLE_SIDEWALK
 10
-6028613.049506489187479
 20
-33514766.7025032788515091
 30
0.0
  0
VERTEX
  5
B6F
  8
P_AISLE_SIDEWALK
 10
-6027945.5245860116556287
 20
-33514767.1553516313433647
 30
0.0
  0
VERTEX
  5
B70
  8
P_AISLE_SIDEWALK
 10
-6027604.1151438588276505
 20
-33514676.7643443718552589
 30
0.0
  0
VERTEX
  5
B71
  8
P_AISLE_SIDEWALK
 10
-6027384.0738737601786852
 20
-33514586.2910024300217628
 30
0.0
  0
VERTEX
  5
B72
  8
P_AISLE_SIDEWALK
 10
-6026966.7273896737024188
 20
-33514375.1213454492390156
 30
0.0
  0
VERTEX
  5
B73
  8
P_AISLE_SIDEWALK
 10
-6026792.1582194166257977
 20
-33514224.2020800188183784
 30
0.0
  0
SEQEND
  5
B74
  8
P_AISLE_SIDEWALK
  0
POLYLINE
  5
156
  8
P_AISLE_SIDEWALK
 66
     1
 10
0.0
 20
0.0
 30
0.0
 70
     1
  0
VERTEX
  5
B75
  8
P_AISLE_SIDEWALK
 10
-5911428.6889454405754805
 20
-33578157.0413596779108047
 30
0.0
  0
VERTEX
  5
B76
  8
P_AISLE_SIDEWALK
 10
-5914231.0896225469186902
 20
-33583154.6626085489988327
 30
0.0
  0
VERTEX
  5
B77
  8
P_AISLE_SIDEWALK
 10
-5916767.1938393907621503
 20
-33586944.1252957507967949
 30
0.0
  0
VERTEX
  5
B78
  8
P_AISLE_SIDEWALK
 10
-5918119.1507900459691882
 20
-33589533.5930832475423813
 30
0.0
  0
VERTEX
  5
B79
  8
P_AISLE_SIDEWALK
 10
-5943287.3924114489927888
 20
-33633847.5832574293017387
 30
0.0
  0
VERTEX
  5
B7A
  8
P_AISLE_SIDEWALK
 10
-5945694.911585358902812
 20
-33638150.6657721325755119
 30
0.0
  0
VERTEX
  5
B7B
  8
P_AISLE_SIDEWALK
 10
-5943730.2371267089620233
 20
-33638151.9800740703940392
 30
0.0
  0
VERTEX
  5
B7C
  8
P_AISLE_SIDEWALK
 10
-5943237.0912946397438645
 20
-33638031.4764160290360451
 30
0.0
  0
VERTEX
  5
B7D
  8
P_AISLE_SIDEWALK
 10
-5942819.6804183665663004
 20
-33637729.6718520671129227
 30
0.0
  0
VERTEX
  5
B7E
  8
P_AISLE_SIDEWALK
 10
-5942326.4336207620799541
 20
-33637458.1263537928462029
 30
0.0
  0
VERTEX
  5
B7F
  8
P_AISLE_SIDEWALK
 10
-5942037.9782550130039454
 20
-33637156.2355180084705353
 30
0.0
  0
VERTEX
  5
B80
  8
P_AISLE_SIDEWALK
 10
-5941711.4534477908164263
 20
-33636642.9115262478590012
 30
0.0
  0
VERTEX
  5
B81
  8
P_AISLE_SIDEWALK
 10
-5918123.476224010810256
 20
-33596028.3905602768063545
 30
0.0
  0
VERTEX
  5
B82
  8
P_AISLE_SIDEWALK
 10
-5916255.1409159172326326
 20
-33592600.9842327907681465
 30
0.0
  0
VERTEX
  5
B83
  8
P_AISLE_SIDEWALK
 10
-5915784.2569824475795031
 20
-33591732.8069776073098183
 30
0.0
  0
VERTEX
  5
B84
  8
P_AISLE_SIDEWALK
 10
-5915541.1967986328527331
 20
-33591249.6348025277256966
 30
0.0
  0
VERTEX
  5
B85
  8
P_AISLE_SIDEWALK
 10
-5915267.7943374263122678
 20
-33590766.4828200936317444
 30
0.0
  0
VERTEX
  5
B86
  8
P_AISLE_SIDEWALK
 10
-5910498.0454775961115956
 20
-33581737.3527604192495346
 30
0.0
  0
VERTEX
  5
B87
  8
P_AISLE_SIDEWALK
 10
-5910201.8517227284610271
 20
-33581201.3511205464601517
 30
0.0
  0
VERTEX
  5
B88
  8
P_AISLE_SIDEWALK
 10
-5908432.3909983420744538
 20
-33578159.0340956896543503
 30
0.0
  0
VERTEX
  5
B89
  8
P_AISLE_SIDEWALK
 10
-5906518.6100378427654505
 20
-33574822.2809828072786331
 30
0.0
  0
VERTEX
  5
B8A
  8
P_AISLE_SIDEWALK
 10
-5906514.990800442174077
 20
-33569377.2238629087805748
 30
0.0
  0
VERTEX
  5
B8B
  8
P_AISLE_SIDEWALK
 10
-5911428.6889454405754805
 20
-33578157.0413596779108047
 30
0.0
  0
SEQEND
  5
B8C
  8
P_AISLE_SIDEWALK
  0
POLYLINE
  5
16F
  8
P_AISLE_SIDEWALK
 66
     1
 10
0.0
 20
0.0
 30
0.0
 70
     1
  0
VERTEX
  5
B8D
  8
P_AISLE_SIDEWALK
 10
-6060240.5484810005873442
 20
-33597745.1089143306016922
 30
0.0
  0
VERTEX
  5
B8E
  8
P_AISLE_SIDEWALK
 10
-6038324.5356417652219534
 20
-33607056.655231311917305
 30
0.0
  0
VERTEX
  5
B8F
  8
P_AISLE_SIDEWALK
 10
-6036625.8972003655508161
 20
-33607843.2270294427871704
 30
0.0
  0
VERTEX
  5
B90
  8
P_AISLE_SIDEWALK
 10
-6022839.2309135962277651
 20
-33613660.1416809409856796
 30
0.0
  0
VERTEX
  5
B91
  8
P_AISLE_SIDEWALK
 10
-6022126.7121435459703207
 20
-33614438.4901895225048065
 30
0.0
  0
VERTEX
  5
B92
  8
P_AISLE_SIDEWALK
 10
-6022194.1687449803575873
 20
-33613237.6616283282637596
 30
0.0
  0
VERTEX
  5
B93
  8
P_AISLE_SIDEWALK
 10
-6022489.3313226066529751
 20
-33612240.5852657034993172
 30
0.0
  0
VERTEX
  5
B94
  8
P_AISLE_SIDEWALK
 10
-6022936.3541284371167421
 20
-33611462.4166772216558456
 30
0.0
  0
VERTEX
  5
B95
  8
P_AISLE_SIDEWALK
 10
-6023937.0790208373218775
 20
-33610615.9038907885551453
 30
0.0
  0
VERTEX
  5
B96
  8
P_AISLE_SIDEWALK
 10
-6032991.7023400561884046
 20
-33606818.6103424280881882
 30
0.0
  0
VERTEX
  5
B97
  8
P_AISLE_SIDEWALK
 10
-6039771.2530172439292073
 20
-33603921.5532548800110817
 30
0.0
  0
VERTEX
  5
B98
  8
P_AISLE_SIDEWALK
 10
-6056553.3177097840234637
 20
-33596811.1631433889269829
 30
0.0
  0
VERTEX
  5
B99
  8
P_AISLE_SIDEWALK
 10
-6057736.6682690223678946
 20
-33596810.3565382808446884
 30
0.0
  0
VERTEX
  5
B9A
  8
P_AISLE_SIDEWALK
 10
-6058738.1090705189853907
 20
-33597021.1324271187186241
 30
0.0
  0
VERTEX
  5
B9B
  8
P_AISLE_SIDEWALK
 10
-6059474.0751887653023005
 20
-33597262.2976055294275284
 30
0.0
  0
VERTEX
  5
B9C
  8
P_AISLE_SIDEWALK
 10
-6060240.5484810005873442
 20
-33597745.1089143306016922
 30
0.0
  0
SEQEND
  5
B9D
  8
P_AISLE_SIDEWALK
  0
POLYLINE
  5
181
  8
P_AISLE_SIDEWALK
 66
     1
 10
0.0
 20
0.0
 30
0.0
 70
     1
  0
VERTEX
  5
B9E
  8
P_AISLE_SIDEWALK
 10
-5906478.9220787351951003
 20
-33515113.0392564684152603
 30
0.0
  0
VERTEX
  5
B9F
  8
P_AISLE_SIDEWALK
 10
-5906477.9432430472224951
 20
-33513640.422708548605442
 30
0.0
  0
VERTEX
  5
BA0
  8
P_AISLE_SIDEWALK
 10
-5906697.8627762096002698
 20
-33513549.653929490596056
 30
0.0
  0
VERTEX
  5
BA1
  8
P_AISLE_SIDEWALK
 10
-5908025.0055555906146765
 20
-33513065.4511405415832996
 30
0.0
  0
VERTEX
  5
BA2
  8
P_AISLE_SIDEWALK
 10
-5909003.3001720430329442
 20
-33512709.8621465489268303
 30
0.0
  0
VERTEX
  5
BA3
  8
P_AISLE_SIDEWALK
 10
-5912613.0977665241807699
 20
-33511348.1220248490571976
 30
0.0
  0
VERTEX
  5
BA4
  8
P_AISLE_SIDEWALK
 10
-5913689.9784742603078485
 20
-33510954.7075001485645771
 30
0.0
  0
VERTEX
  5
BA5
  8
P_AISLE_SIDEWALK
 10
-5914402.8402138510718942
 20
-33510689.9171500094234943
 30
0.0
  0
VERTEX
  5
BA6
  8
P_AISLE_SIDEWALK
 10
-5914851.1843756278976798
 20
-33511890.3681447394192219
 30
0.0
  0
VERTEX
  5
BA7
  8
P_AISLE_SIDEWALK
 10
-5912689.8573313802480698
 20
-33512707.4099094495177269
 30
0.0
  0
VERTEX
  5
BA8
  8
P_AISLE_SIDEWALK
 10
-5906478.9220787351951003
 20
-33515113.0392564684152603
 30
0.0
  0
SEQEND
  5
BA9
  8
P_AISLE_SIDEWALK
  0
POLYLINE
  5
18E
  8
P_AISLE_SIDEWALK
 66
     1
 10
0.0
 20
0.0
 30
0.0
 70
     1
  0
VERTEX
  5
BAA
  8
P_AISLE_SIDEWALK
 10
-5906442.795301727950573
 20
-33460762.1586579084396362
 30
0.0
  0
VERTEX
  5
BAB
  8
P_AISLE_SIDEWALK
 10
-5906441.0986326672136784
 20
-33458209.6230979189276695
 30
0.0
  0
VERTEX
  5
BAC
  8
P_AISLE_SIDEWALK
 10
-5925631.1906594224274158
 20
-33445132.0877323113381863
 30
0.0
  0
VERTEX
  5
BAD
  8
P_AISLE_SIDEWALK
 10
-5933533.5008083581924438
 20
-33442536.5182845890522003
 30
0.0
  0
VERTEX
  5
BAE
  8
P_AISLE_SIDEWALK
 10
-5933829.2727902410551906
 20
-33442445.6981707103550434
 30
0.0
  0
VERTEX
  5
BAF
  8
P_AISLE_SIDEWALK
 10
-5934542.3049589255824685
 20
-33442445.2219899818301201
 30
0.0
  0
VERTEX
  5
BB0
  8
P_AISLE_SIDEWALK
 10
-5934929.2233648728579283
 20
-33442535.5861780494451523
 30
0.0
  0
VERTEX
  5
BB1
  8
P_AISLE_SIDEWALK
 10
-5935225.1971014076843858
 20
-33442746.8412394113838673
 30
0.0
  0
VERTEX
  5
BB2
  8
P_AISLE_SIDEWALK
 10
-5935521.1506764302030206
 20
-33442927.8887681700289249
 30
0.0
  0
VERTEX
  5
BB3
  8
P_AISLE_SIDEWALK
 10
-5936431.9494447987526655
 20
-33443742.8837952502071857
 30
0.0
  0
VERTEX
  5
BB4
  8
P_AISLE_SIDEWALK
 10
-5927862.174710975959897
 20
-33446421.9718382097780704
 30
0.0
  0
VERTEX
  5
BB5
  8
P_AISLE_SIDEWALK
 10
-5918126.7849127324298024
 20
-33452930.6330800205469131
 30
0.0
  0
VERTEX
  5
BB6
  8
P_AISLE_SIDEWALK
 10
-5906442.795301727950573
 20
-33460762.1586579084396362
 30
0.0
  0
SEQEND
  5
BB7
  8
P_AISLE_SIDEWALK
  0
POLYLINE
  5
19D
  8
P_TRAFFICSIGN
 66
     1
 10
0.0
 20
0.0
 30
0.0
 70
     1
  0
VERTEX
  5
BB8
  8
P_TRAFFICSIGN
 10
-6014311.3264919789507985
 20
-33499083.5802284516394138
 30
0.0
  0
VERTEX
  5
BB9
  8
P_TRAFFICSIGN
 10
-6016195.4993234016001225
 20
-33497866.4515306986868382
 30
0.0
  0
VERTEX
  5
BBA
  8
P_TRAFFICSIGN
 10
-6019255.628402516245842
 20
-33502550.3228297606110573
 30
0.0
  0
VERTEX
  5
BBB
  8
P_TRAFFICSIGN
 10
-6017371.4549963781610131
 20
-33503767.4521655514836311
 30
0.0
  0
VERTEX
  5
BBC
  8
P_TRAFFICSIGN
 10
-6014311.3264919789507985
 20
-33499083.5802284516394138
 30
0.0
  0
SEQEND
  5
BBD
  8
P_TRAFFICSIGN
  0
POLYLINE
  5
1A4
  8
P_TRAFFICSIGN
 66
     1
 10
0.0
 20
0.0
 30
0.0
 70
     1
  0
VERTEX
  5
BBE
  8
P_TRAFFICSIGN
 10
-6018000.3151001296937466
 20
-33502679.5550892502069473
 30
0.0
  0
VERTEX
  5
BBF
  8
P_TRAFFICSIGN
 10
-6017790.4634013772010803
 20
-33500833.2617159597575665
 30
0.0
  0
VERTEX
  5
BC0
  8
P_TRAFFICSIGN
 10
-6017437.8911414770409465
 20
-33501060.0569806806743145
 30
0.0
  0
VERTEX
  5
BC1
  8
P_TRAFFICSIGN
 10
-6016074.8778613051399589
 20
-33498969.1081774681806564
 30
0.0
  0
VERTEX
  5
BC2
  8
P_TRAFFICSIGN
 10
-6015373.5261273998767138
 20
-33499422.6959898695349693
 30
0.0
  0
VERTEX
  5
BC3
  8
P_TRAFFICSIGN
 10
-6016740.3320624092593789
 20
-33501513.6423316486179829
 30
0.0
  0
VERTEX
  5
BC4
  8
P_TRAFFICSIGN
 10
-6016391.5524950427934527
 20
-33501740.4349862709641457
 30
0.0
  0
VERTEX
  5
BC5
  8
P_TRAFFICSIGN
 10
-6018000.3151001296937466
 20
-33502679.5550892502069473
 30
0.0
  0
SEQEND
  5
BC6
  8
P_TRAFFICSIGN
  0
POLYLINE
  5
1AE
  8
P_TRAFFICSIGN
 66
     1
 10
0.0
 20
0.0
 30
0.0
 70
     1
  0
VERTEX
  5
BC7
  8
P_TRAFFICSIGN
 10
-5935353.1828545778989792
 20
-33509437.4393988288938999
 30
0.0
  0
VERTEX
  5
BC8
  8
P_TRAFFICSIGN
 10
-5934695.6092498069629073
 20
-33507300.6956538483500481
 30
0.0
  0
VERTEX
  5
BC9
  8
P_TRAFFICSIGN
 10
-5940061.2628893442451954
 20
-33505665.9037087485194206
 30
0.0
  0
VERTEX
  5
BCA
  8
P_TRAFFICSIGN
 10
-5940718.837665188126266
 20
-33507802.6470635496079922
 30
0.0
  0
VERTEX
  5
BCB
  8
P_TRAFFICSIGN
 10
-5935353.1828545778989792
 20
-33509437.4393988288938999
 30
0.0
  0
SEQEND
  5
BCC
  8
P_TRAFFICSIGN
  0
POLYLINE
  5
1B5
  8
P_TRAFFICSIGN
 66
     1
 10
0.0
 20
0.0
 30
0.0
 70
     1
  0
VERTEX
  5
BCD
  8
P_TRAFFICSIGN
 10
-5939838.3159153629094362
 20
-33506900.7856455706059933
 30
0.0
  0
VERTEX
  5
BCE
  8
P_TRAFFICSIGN
 10
-5937998.6243828190490603
 20
-33506592.3879807516932487
 30
0.0
  0
VERTEX
  5
BCF
  8
P_TRAFFICSIGN
 10
-5938120.2599055375903845
 20
-33506992.5565085411071777
 30
0.0
  0
VERTEX
  5
BD0
  8
P_TRAFFICSIGN
 10
-5935727.5177616216242313
 20
-33507719.1359325684607029
 30
0.0
  0
VERTEX
  5
BD1
  8
P_TRAFFICSIGN
 10
-5935970.7861192049458623
 20
-33508515.6971069499850273
 30
0.0
  0
VERTEX
  5
BD2
  8
P_TRAFFICSIGN
 10
-5938367.3186857551336288
 20
-33507785.3391434513032436
 30
0.0
  0
VERTEX
  5
BD3
  8
P_TRAFFICSIGN
 10
-5938488.9517178349196911
 20
-33508181.7317255698144436
 30
0.0
  0
VERTEX
  5
BD4
  8
P_TRAFFICSIGN
 10
-5939838.3159153629094362
 20
-33506900.7856455706059933
 30
0.0
  0
SEQEND
  5
BD5
  8
P_TRAFFICSIGN
  0
POLYLINE
  5
1BF
  8
P_TRAFFICSIGN
 66
     1
 10
0.0
 20
0.0
 30
0.0
 70
     1
  0
VERTEX
  5
BD6
  8
P_TRAFFICSIGN
 10
-6041773.0518525084480643
 20
-33552543.6115242205560207
 30
0.0
  0
VERTEX
  5
BD7
  8
P_TRAFFICSIGN
 10
-6043695.2036563726142049
 20
-33551390.6422900483012199
 30
0.0
  0
VERTEX
  5
BD8
  8
P_TRAFFICSIGN
 10
-6046592.3483164729550481
 20
-33556180.341070719063282
 30
0.0
  0
VERTEX
  5
BD9
  8
P_TRAFFICSIGN
 10
-6044666.4005063716322184
 20
-33557329.5375613197684288
 30
0.0
  0
VERTEX
  5
BDA
  8
P_TRAFFICSIGN
 10
-6041773.0518525084480643
 20
-33552543.6115242205560207
 30
0.0
  0
SEQEND
  5
BDB
  8
P_TRAFFICSIGN
  0
POLYLINE
  5
1C6
  8
P_TRAFFICSIGN
 66
     1
 10
0.0
 20
0.0
 30
0.0
 70
     1
  0
VERTEX
  5
BDC
  8
P_TRAFFICSIGN
 10
-6045333.2042235294356942
 20
-33556264.2684772983193398
 30
0.0
  0
VERTEX
  5
BDD
  8
P_TRAFFICSIGN
 10
-6045187.8175983745604753
 20
-33554410.3801472298800945
 30
0.0
  0
VERTEX
  5
BDE
  8
P_TRAFFICSIGN
 10
-6044827.6506533622741699
 20
-33554625.8538198694586754
 30
0.0
  0
VERTEX
  5
BDF
  8
P_TRAFFICSIGN
 10
-6043536.6545792911201715
 20
-33552489.5490788705646992
 30
0.0
  0
VERTEX
  5
BE0
  8
P_TRAFFICSIGN
 10
-6042823.9037234308198094
 20
-33552916.7151789702475071
 30
0.0
  0
VERTEX
  5
BE1
  8
P_TRAFFICSIGN
 10
-6044114.8996877279132605
 20
-33555053.0200219377875328
 30
0.0
  0
VERTEX
  5
BE2
  8
P_TRAFFICSIGN
 10
-6043754.7326906947419047
 20
-33555268.4936492592096329
 30
0.0
  0
VERTEX
  5
BE3
  8
P_TRAFFICSIGN
 10
-6045333.2042235294356942
 20
-33556264.2684772983193398
 30
0.0
  0
SEQEND
  5
BE4
  8
P_TRAFFICSIGN
  0
POLYLINE
  5
1D0
  8
P_TRAFFICSIGN
 66
     1
 10
0.0
 20
0.0
 30
0.0
 70
     1
  0
VERTEX
  5
BE5
  8
P_TRAFFICSIGN
 10
-5984009.8725530952215195
 20
-33491710.7436339296400547
 30
0.0
  0
VERTEX
  5
BE6
  8
P_TRAFFICSIGN
 10
-5983466.047987524420023
 20
-33489539.9433438181877136
 30
0.0
  0
VERTEX
  5
BE7
  8
P_TRAFFICSIGN
 10
-5988911.5179224610328674
 20
-33488184.4877630695700645
 30
0.0
  0
VERTEX
  5
BE8
  8
P_TRAFFICSIGN
 10
-5989455.3437323151156306
 20
-33490355.287726741284132
 30
0.0
  0
VERTEX
  5
BE9
  8
P_TRAFFICSIGN
 10
-5984009.8725530952215195
 20
-33491710.7436339296400547
 30
0.0
  0
SEQEND
  5
BEA
  8
P_TRAFFICSIGN
  0
POLYLINE
  5
1D7
  8
P_TRAFFICSIGN
 66
     1
 10
0.0
 20
0.0
 30
0.0
 70
     1
  0
VERTEX
  5
BEB
  8
P_TRAFFICSIGN
 10
-5988624.0938930073752999
 20
-33489408.0866016708314419
 30
0.0
  0
VERTEX
  5
BEC
  8
P_TRAFFICSIGN
 10
-5986803.3043834790587425
 20
-33489005.2877535298466682
 30
0.0
  0
VERTEX
  5
BED
  8
P_TRAFFICSIGN
 10
-5986905.980689606629312
 20
-33489409.2443435415625572
 30
0.0
  0
VERTEX
  5
BEE
  8
P_TRAFFICSIGN
 10
-5984475.2384236278012395
 20
-33490015.0323958285152912
 30
0.0
  0
VERTEX
  5
BEF
  8
P_TRAFFICSIGN
 10
-5984676.7955671921372414
 20
-33490819.1722403094172478
 30
0.0
  0
VERTEX
  5
BF0
  8
P_TRAFFICSIGN
 10
-5987107.5405814740806818
 20
-33490217.1600727513432503
 30
0.0
  0
VERTEX
  5
BF1
  8
P_TRAFFICSIGN
 10
-5987206.4216250078752637
 20
-33490617.343273401260376
 30
0.0
  0
VERTEX
  5
BF2
  8
P_TRAFFICSIGN
 10
-5988624.0938930073752999
 20
-33489408.0866016708314419
 30
0.0
  0
SEQEND
  5
BF3
  8
P_TRAFFICSIGN
  0
POLYLINE
  5
1E1
  8
P_TRAFFICSIGN
 66
     1
 10
0.0
 20
0.0
 30
0.0
 70
     1
  0
VERTEX
  5
BF4
  8
P_TRAFFICSIGN
 10
-6028958.5655521200969815
 20
-33604763.4020841792225838
 30
0.0
  0
VERTEX
  5
BF5
  8
P_TRAFFICSIGN
 10
-6029692.0095468778163195
 20
-33606877.490619070827961
 30
0.0
  0
VERTEX
  5
BF6
  8
P_TRAFFICSIGN
 10
-6024387.1238786932080984
 20
-33608701.1431159675121307
 30
0.0
  0
VERTEX
  5
BF7
  8
P_TRAFFICSIGN
 10
-6023653.6809952054172754
 20
-33606587.0541505366563797
 30
0.0
  0
VERTEX
  5
BF8
  8
P_TRAFFICSIGN
 10
-6028958.5655521200969815
 20
-33604763.4020841792225838
 30
0.0
  0
SEQEND
  5
BF9
  8
P_TRAFFICSIGN
  0
POLYLINE
  5
1E8
  8
P_TRAFFICSIGN
 66
     1
 10
0.0
 20
0.0
 30
0.0
 70
     1
  0
VERTEX
  5
BFA
  8
P_TRAFFICSIGN
 10
-6024564.5430149687454104
 20
-33607458.7034636065363884
 30
0.0
  0
VERTEX
  5
BFB
  8
P_TRAFFICSIGN
 10
-6026415.5907580209895968
 20
-33607699.115325428545475
 30
0.0
  0
VERTEX
  5
BFC
  8
P_TRAFFICSIGN
 10
-6026278.7838272759690881
 20
-33607306.4992419630289078
 30
0.0
  0
VERTEX
  5
BFD
  8
P_TRAFFICSIGN
 10
-6028644.9369586212560534
 20
-33606493.0442682877182961
 30
0.0
  0
VERTEX
  5
BFE
  8
P_TRAFFICSIGN
 10
-6028371.3229465987533331
 20
-33605707.8121665120124817
 30
0.0
  0
VERTEX
  5
BFF
  8
P_TRAFFICSIGN
 10
-6026005.1699973260983825
 20
-33606521.2670708075165749
 30
0.0
  0
VERTEX
  5
C00
  8
P_TRAFFICSIGN
 10
-6025868.3631027229130268
 20
-33606128.6509816870093346
 30
0.0
  0
VERTEX
  5
C01
  8
P_TRAFFICSIGN
 10
-6024564.5430149687454104
 20
-33607458.7034636065363884
 30
0.0
  0
SEQEND
  5
C02
  8
P_TRAFFICSIGN
  0
POLYLINE
  5
1F2
  8
P_TRAFFICSIGN
 66
     1
 10
0.0
 20
0.0
 30
0.0
 70
     1
  0
VERTEX
  5
C03
  8
P_TRAFFICSIGN
 10
-6051700.8037608899176121
 20
-33594560.1691575273871422
 30
0.0
  0
VERTEX
  5
C04
  8
P_TRAFFICSIGN
 10
-6052472.1699495855718851
 20
-33596659.1258408427238464
 30
0.0
  0
VERTEX
  5
C05
  8
P_TRAFFICSIGN
 10
-6047197.6990320961922407
 20
-33598573.3964121118187904
 30
0.0
  0
VERTEX
  5
C06
  8
P_TRAFFICSIGN
 10
-6046426.333922908641398
 20
-33596474.4392784312367439
 30
0.0
  0
VERTEX
  5
C07
  8
P_TRAFFICSIGN
 10
-6051700.8037608899176121
 20
-33594560.1691575273871422
 30
0.0
  0
SEQEND
  5
C08
  8
P_TRAFFICSIGN
  0
POLYLINE
  5
1F9
  8
P_TRAFFICSIGN
 66
     1
 10
0.0
 20
0.0
 30
0.0
 70
     1
  0
VERTEX
  5
C09
  8
P_TRAFFICSIGN
 10
-6047352.3554609650745988
 20
-33597327.1957220584154129
 30
0.0
  0
VERTEX
  5
C0A
  8
P_TRAFFICSIGN
 10
-6049207.1739505594596267
 20
-33597537.3918973132967949
 30
0.0
  0
VERTEX
  5
C0B
  8
P_TRAFFICSIGN
 10
-6049066.575943861156702
 20
-33597148.554785281419754
 30
0.0
  0
VERTEX
  5
C0C
  8
P_TRAFFICSIGN
 10
-6051417.5248478688299656
 20
-33596293.5675598680973053
 30
0.0
  0
VERTEX
  5
C0D
  8
P_TRAFFICSIGN
 10
-6051128.7405459536239505
 20
-33595512.1225225999951363
 30
0.0
  0
VERTEX
  5
C0E
  8
P_TRAFFICSIGN
 10
-6048777.7918212525546551
 20
-33596367.1096729412674904
 30
0.0
  0
VERTEX
  5
C0F
  8
P_TRAFFICSIGN
 10
-6048637.1938540367409587
 20
-33595978.2725531309843063
 30
0.0
  0
VERTEX
  5
C10
  8
P_TRAFFICSIGN
 10
-6047352.3554609650745988
 20
-33597327.1957220584154129
 30
0.0
  0
SEQEND
  5
C11
  8
P_TRAFFICSIGN
  0
POLYLINE
  5
203
  8
P_RAILWAYAREA
 66
     1
 10
0.0
 20
0.0
 30
0.0
 70
     1
  0
VERTEX
  5
C12
  8
P_RAILWAYAREA
 10
-5986381.6512297010049224
 20
-33578106.8639586195349693
 30
0.0
  0
VERTEX
  5
C13
  8
P_RAILWAYAREA
 10
-5977568.8428531624376774
 20
-33614347.7411222830414772
 30
0.0
  0
VERTEX
  5
C14
  8
P_RAILWAYAREA
 10
-5969484.9051226349547505
 20
-33674248.8243894502520561
 30
0.0
  0
VERTEX
  5
C15
  8
P_RAILWAYAREA
 10
-5967512.067353799007833
 20
-33707290.5537210032343864
 30
0.0
  0
VERTEX
  5
C16
  8
P_RAILWAYAREA
 10
-5968560.3357059042900801
 20
-33732030.5034044981002808
 30
0.0
  0
VERTEX
  5
C17
  8
P_RAILWAYAREA
 10
-5966531.0337676322087646
 20
-33782683.7448484599590302
 30
0.0
  0
VERTEX
  5
C18
  8
P_RAILWAYAREA
 10
-5966550.2175474846735597
 20
-33811257.0690511018037796
 30
0.0
  0
VERTEX
  5
C19
  8
P_RAILWAYAREA
 10
-5956734.2396311815828085
 20
-33811263.6539370864629745
 30
0.0
  0
VERTEX
  5
C1A
  8
P_RAILWAYAREA
 10
-5956714.662199379876256
 20
-33782055.9543665573000908
 30
0.0
  0
VERTEX
  5
C1B
  8
P_RAILWAYAREA
 10
-5958721.6882085576653481
 20
-33732037.1058829203248024
 30
0.0
  0
VERTEX
  5
C1C
  8
P_RAILWAYAREA
 10
-5957696.3055308414623141
 20
-33707448.1815950572490692
 30
0.0
  0
VERTEX
  5
C1D
  8
P_RAILWAYAREA
 10
-5959736.295876388438046
 20
-33672684.5323737263679504
 30
0.0
  0
VERTEX
  5
C1E
  8
P_RAILWAYAREA
 10
-5968039.356978565454483
 20
-33611408.8298220485448837
 30
0.0
  0
VERTEX
  5
C1F
  8
P_RAILWAYAREA
 10
-5976118.382511462084949
 20
-33578113.772080197930336
 30
0.0
  0
VERTEX
  5
C20
  8
P_RAILWAYAREA
 10
-5979586.7260839147493243
 20
-33563788.8930185809731483
 30
0.0
  0
VERTEX
  5
C21
  8
P_RAILWAYAREA
 10
-5985498.3947155633941293
 20
-33539377.2277929186820984
 30
0.0
  0
VERTEX
  5
C22
  8
P_RAILWAYAREA
 10
-5993012.8076592572033405
 20
-33512653.6007223315536976
 30
0.0
  0
VERTEX
  5
C23
  8
P_RAILWAYAREA
 10
-6003351.8558839317411184
 20
-33512646.6217431612312794
 30
0.0
  0
VERTEX
  5
C24
  8
P_RAILWAYAREA
 10
-6002837.3626031363382936
 20
-33514602.9070753194391727
 30
0.0
  0
VERTEX
  5
C25
  8
P_RAILWAYAREA
 10
-5994974.9396949438378215
 20
-33542655.9086122512817383
 30
0.0
  0
VERTEX
  5
C26
  8
P_RAILWAYAREA
 10
-5989853.7684924276545644
 20
-33563778.2022681385278702
 30
0.0
  0
VERTEX
  5
C27
  8
P_RAILWAYAREA
 10
-5986381.6512297010049224
 20
-33578106.8639586195349693
 30
0.0
  0
SEQEND
  5
C28
  8
P_RAILWAYAREA
  0
POLYLINE
  5
21B
  8
P_RAILWAYAREA
 66
     1
 10
0.0
 20
0.0
 30
0.0
 70
     1
  0
VERTEX
  5
C29
  8
P_RAILWAYAREA
 10
-5988917.0532654598355293
 20
-33316326.2489588707685471
 30
0.0
  0
VERTEX
  5
C2A
  8
P_RAILWAYAREA
 10
-6000822.2459640940651298
 20
-33316318.2167280986905098
 30
0.0
  0
VERTEX
  5
C2B
  8
P_RAILWAYAREA
 10
-6071496.8422367852181196
 20
-33441272.7799079492688179
 30
0.0
  0
VERTEX
  5
C2C
  8
P_RAILWAYAREA
 10
-6095368.3956450307741761
 20
-33485706.8259400017559528
 30
0.0
  0
VERTEX
  5
C2D
  8
P_RAILWAYAREA
 10
-6104760.7412516390904784
 20
-33509987.2358797714114189
 30
0.0
  0
VERTEX
  5
C2E
  8
P_RAILWAYAREA
 10
-6105771.39344990439713
 20
-33512576.8375173807144165
 30
0.0
  0
VERTEX
  5
C2F
  8
P_RAILWAYAREA
 10
-6094871.0175089593976736
 20
-33512584.3206931687891483
 30
0.0
  0
VERTEX
  5
C30
  8
P_RAILWAYAREA
 10
-6086724.8992019379511476
 20
-33491489.9417876116931438
 30
0.0
  0
VERTEX
  5
C31
  8
P_RAILWAYAREA
 10
-6063202.7372791599482298
 20
-33447689.9928440116345882
 30
0.0
  0
VERTEX
  5
C32
  8
P_RAILWAYAREA
 10
-5988917.0532654598355293
 20
-33316326.2489588707685471
 30
0.0
  0
SEQEND
  5
C33
  8
P_RAILWAYAREA
  0
POLYLINE
  5
227
  8
P_RAILWAYAREA
 66
     1
 10
0.0
 20
0.0
 30
0.0
 70
     1
  0
VERTEX
  5
C34
  8
P_RAILWAYAREA
 10
-6036172.9885957045480609
 20
-33365453.2692402005195618
 30
0.0
  0
VERTEX
  5
C35
  8
P_RAILWAYAREA
 10
-6039426.0697011966258287
 20
-33352748.788101501762867
 30
0.0
  0
VERTEX
  5
C36
  8
P_RAILWAYAREA
 10
-6044554.8087320262566209
 20
-33354255.6776966117322445
 30
0.0
  0
VERTEX
  5
C37
  8
P_RAILWAYAREA
 10
-6052828.8101186333224177
 20
-33351840.9939598105847836
 30
0.0
  0
VERTEX
  5
C38
  8
P_RAILWAYAREA
 10
-6053518.8731181314215064
 20
-33351538.4484585411846638
 30
0.0
  0
VERTEX
  5
C39
  8
P_RAILWAYAREA
 10
-6059627.5939360773190856
 20
-33344073.022042840719223
 30
0.0
  0
VERTEX
  5
C3A
  8
P_RAILWAYAREA
 10
-6063131.4965375550091267
 20
-33343285.2357466891407967
 30
0.0
  0
VERTEX
  5
C3B
  8
P_RAILWAYAREA
 10
-6063844.6238368330523372
 20
-33343435.7868140302598476
 30
0.0
  0
VERTEX
  5
C3C
  8
P_RAILWAYAREA
 10
-6051656.991620902903378
 20
-33357588.7767014913260937
 30
0.0
  0
VERTEX
  5
C3D
  8
P_RAILWAYAREA
 10
-6044839.4672645283862948
 20
-33371284.9847701117396355
 30
0.0
  0
VERTEX
  5
C3E
  8
P_RAILWAYAREA
 10
-6034846.4606623332947493
 20
-33400306.1185170002281666
 30
0.0
  0
VERTEX
  5
C3F
  8
P_RAILWAYAREA
 10
-6003351.8558839317411184
 20
-33512646.6217431612312794
 30
0.0
  0
VERTEX
  5
C40
  8
P_RAILWAYAREA
 10
-5993012.8076592572033405
 20
-33512653.6007223315536976
 30
0.0
  0
VERTEX
  5
C41
  8
P_RAILWAYAREA
 10
-5993550.05950912181288
 20
-33510697.3006075583398342
 30
0.0
  0
VERTEX
  5
C42
  8
P_RAILWAYAREA
 10
-6025680.3834895882755518
 20
-33396037.9723752215504646
 30
0.0
  0
VERTEX
  5
C43
  8
P_RAILWAYAREA
 10
-6036172.9885957045480609
 20
-33365453.2692402005195618
 30
0.0
  0
SEQEND
  5
C44
  8
P_RAILWAYAREA
  0
POLYLINE
  5
239
  8
P_BUILDING_FACILITY
 66
     1
 10
0.0
 20
0.0
 30
0.0
 70
     1
  0
VERTEX
  5
C45
  8
P_BUILDING_FACILITY
 10
-6003396.0723344385623932
 20
-33578095.3855777382850647
 30
0.0
  0
VERTEX
  5
C46
  8
P_BUILDING_FACILITY
 10
-5976786.6061098119243979
 20
-33590423.2352899685502052
 30
0.0
  0
VERTEX
  5
C47
  8
P_BUILDING_FACILITY
 10
-5971089.153275384567678
 20
-33578117.152885377407074
 30
0.0
  0
VERTEX
  5
C48
  8
P_BUILDING_FACILITY
 10
-5967837.8047146927565336
 20
-33571080.7856718525290489
 30
0.0
  0
VERTEX
  5
C49
  8
P_BUILDING_FACILITY
 10
-5964464.9277106057852507
 20
-33563799.0557280108332634
 30
0.0
  0
VERTEX
  5
C4A
  8
P_BUILDING_FACILITY
 10
-5958866.2629963383078575
 20
-33551704.6956850588321686
 30
0.0
  0
VERTEX
  5
C4B
  8
P_BUILDING_FACILITY
 10
-5958570.0065605826675892
 20
-33551078.0880774483084679
 30
0.0
  0
VERTEX
  5
C4C
  8
P_BUILDING_FACILITY
 10
-5958326.7831211546435952
 20
-33550353.2704234384000301
 30
0.0
  0
VERTEX
  5
C4D
  8
P_BUILDING_FACILITY
 10
-5958083.5799774322658777
 20
-33549658.6602786406874657
 30
0.0
  0
VERTEX
  5
C4E
  8
P_BUILDING_FACILITY
 10
-5957786.7565843872725964
 20
-33548186.2421517409384251
 30
0.0
  0
VERTEX
  5
C4F
  8
P_BUILDING_FACILITY
 10
-5957687.6787704490125179
 20
-33547491.5353626497089863
 30
0.0
  0
VERTEX
  5
C50
  8
P_BUILDING_FACILITY
 10
-5957634.0585051421076059
 20
-33546713.7273862101137638
 30
0.0
  0
VERTEX
  5
C51
  8
P_BUILDING_FACILITY
 10
-5957633.0712022958323359
 20
-33545241.1109027303755283
 30
0.0
  0
VERTEX
  5
C52
  8
P_BUILDING_FACILITY
 10
-5957708.3999971523880959
 20
-33544455.6645854189991951
 30
0.0
  0
VERTEX
  5
C53
  8
P_BUILDING_FACILITY
 10
-5957806.5258900839835405
 20
-33543730.6180458292365074
 30
0.0
  0
VERTEX
  5
C54
  8
P_BUILDING_FACILITY
 10
-5957950.1700380789116025
 20
-33543013.0928685404360294
 30
0.0
  0
VERTEX
  5
C55
  8
P_BUILDING_FACILITY
 10
-5958146.9078351547941566
 20
-33542287.9802058413624763
 30
0.0
  0
VERTEX
  5
C56
  8
P_BUILDING_FACILITY
 10
-5958366.4224550994113088
 20
-33541593.0597974210977554
 30
0.0
  0
VERTEX
  5
C57
  8
P_BUILDING_FACILITY
 10
-5958616.2639801483601332
 20
-33540875.4633979089558125
 30
0.0
  0
VERTEX
  5
C58
  8
P_BUILDING_FACILITY
 10
-5958934.4309586100280285
 20
-33540240.8918848484754562
 30
0.0
  0
VERTEX
  5
C59
  8
P_BUILDING_FACILITY
 10
-5959298.0705635575577617
 20
-33539545.8748009987175465
 30
0.0
  0
VERTEX
  5
C5A
  8
P_BUILDING_FACILITY
 10
-5959570.8306206567212939
 20
-33539069.9232544302940369
 30
0.0
  0
VERTEX
  5
C5B
  8
P_BUILDING_FACILITY
 10
-5959646.5643756771460176
 20
-33538888.6272727400064468
 30
0.0
  0
VERTEX
  5
C5C
  8
P_BUILDING_FACILITY
 10
-5960086.1199547098949552
 20
-33538284.1818349584937096
 30
0.0
  0
VERTEX
  5
C5D
  8
P_BUILDING_FACILITY
 10
-5960995.5983836418017745
 20
-33537113.0299343504011631
 30
0.0
  0
VERTEX
  5
C5E
  8
P_BUILDING_FACILITY
 10
-5961511.0496051274240017
 20
-33536568.9485746398568153
 30
0.0
  0
VERTEX
  5
C5F
  8
P_BUILDING_FACILITY
 10
-5962049.2776169832795858
 20
-33536055.0594338290393353
 30
0.0
  0
VERTEX
  5
C60
  8
P_BUILDING_FACILITY
 10
-5962640.6245316574349999
 20
-33535571.3421493507921696
 30
0.0
  0
VERTEX
  5
C61
  8
P_BUILDING_FACILITY
 10
-5963201.6546096140518785
 20
-33535125.4045833684504032
 30
0.0
  0
VERTEX
  5
C62
  8
P_BUILDING_FACILITY
 10
-5963815.7782557019963861
 20
-33534671.879465389996767
 30
0.0
  0
VERTEX
  5
C63
  8
P_BUILDING_FACILITY
 10
-5964452.7192474575713277
 20
-33534308.9615862183272839
 30
0.0
  0
VERTEX
  5
C64
  8
P_BUILDING_FACILITY
 10
-5965112.4167656861245632
 20
-33533946.0283827111124992
 30
0.0
  0
VERTEX
  5
C65
  8
P_BUILDING_FACILITY
 10
-5965802.4766167420893908
 20
-33533613.2822791486978531
 30
0.0
  0
VERTEX
  5
C66
  8
P_BUILDING_FACILITY
 10
-5969063.3043754072859883
 20
-33532198.8903666213154793
 30
0.0
  0
VERTEX
  5
C67
  8
P_BUILDING_FACILITY
 10
-5993951.790297550149262
 20
-33521496.2226053290069103
 30
0.0
  0
VERTEX
  5
C68
  8
P_BUILDING_FACILITY
 10
-5994710.1177471401169896
 20
-33521163.4281976781785488
 30
0.0
  0
VERTEX
  5
C69
  8
P_BUILDING_FACILITY
 10
-6000238.3576181028038263
 20
-33518788.4057079702615738
 30
0.0
  0
VERTEX
  5
C6A
  8
P_BUILDING_FACILITY
 10
-6007404.5902900565415621
 20
-33515709.9474135115742683
 30
0.0
  0
VERTEX
  5
C6B
  8
P_BUILDING_FACILITY
 10
-6010010.4301443472504616
 20
-33521636.4136624485254288
 30
0.0
  0
VERTEX
  5
C6C
  8
P_BUILDING_FACILITY
 10
-6012737.7848861878737807
 20
-33527774.249607440084219
 30
0.0
  0
VERTEX
  5
C6D
  8
P_BUILDING_FACILITY
 10
-6014333.1876106476411223
 20
-33531382.9700521491467953
 30
0.0
  0
VERTEX
  5
C6E
  8
P_BUILDING_FACILITY
 10
-6015936.2231693621724844
 20
-33535059.6519725695252419
 30
0.0
  0
VERTEX
  5
C6F
  8
P_BUILDING_FACILITY
 10
-6017995.0363203920423985
 20
-33539687.5621846616268158
 30
0.0
  0
VERTEX
  5
C70
  8
P_BUILDING_FACILITY
 10
-6020555.3360807383432984
 20
-33545553.6409353092312813
 30
0.0
  0
VERTEX
  5
C71
  8
P_BUILDING_FACILITY
 10
-6024513.4217342175543308
 20
-33554431.9726098403334618
 30
0.0
  0
VERTEX
  5
C72
  8
P_BUILDING_FACILITY
 10
-6024786.951901220716536
 20
-33555096.3528491035103798
 30
0.0
  0
VERTEX
  5
C73
  8
P_BUILDING_FACILITY
 10
-6025205.0734387123957276
 20
-33556447.8563758879899979
 30
0.0
  0
VERTEX
  5
C74
  8
P_BUILDING_FACILITY
 10
-6025349.6699112625792623
 20
-33557142.5315490365028381
 30
0.0
  0
VERTEX
  5
C75
  8
P_BUILDING_FACILITY
 10
-6025471.4841582179069519
 20
-33557799.4627515003085136
 30
0.0
  0
VERTEX
  5
C76
  8
P_BUILDING_FACILITY
 10
-6025570.6083521200343966
 20
-33558554.583816260099411
 30
0.0
  0
VERTEX
  5
C77
  8
P_BUILDING_FACILITY
 10
-6025601.4421439347788692
 20
-33559279.5436534732580185
 30
0.0
  0
VERTEX
  5
C78
  8
P_BUILDING_FACILITY
 10
-6025601.9081395491957664
 20
-33559966.7646687179803848
 30
0.0
  0
VERTEX
  5
C79
  8
P_BUILDING_FACILITY
 10
-6025473.9165008664131165
 20
-33561386.6054114177823067
 30
0.0
  0
VERTEX
  5
C7A
  8
P_BUILDING_FACILITY
 10
-6025353.03415740840137
 20
-33562104.1162387505173683
 30
0.0
  0
VERTEX
  5
C7B
  8
P_BUILDING_FACILITY
 10
-6025209.3592936266213655
 20
-33562768.7793368473649025
 30
0.0
  0
VERTEX
  5
C7C
  8
P_BUILDING_FACILITY
 10
-6024989.8442498734220862
 20
-33563456.1495024710893631
 30
0.0
  0
VERTEX
  5
C7D
  8
P_BUILDING_FACILITY
 10
-6024891.434322590008378
 20
-33563754.5155923292040825
 30
0.0
  0
VERTEX
  5
C7E
  8
P_BUILDING_FACILITY
 10
-6024762.7461890615522861
 20
-33564147.3117275834083557
 30
0.0
  0
VERTEX
  5
C7F
  8
P_BUILDING_FACILITY
 10
-6024474.9457492800429463
 20
-33564812.0911159589886665
 30
0.0
  0
VERTEX
  5
C80
  8
P_BUILDING_FACILITY
 10
-6024202.2958973227068782
 20
-33565446.6518486365675926
 30
0.0
  0
VERTEX
  5
C81
  8
P_BUILDING_FACILITY
 10
-6023831.0286817569285631
 20
-33566073.7273279279470444
 30
0.0
  0
VERTEX
  5
C82
  8
P_BUILDING_FACILITY
 10
-6023490.0882736789062619
 20
-33566678.125952921807766
 30
0.0
  0
VERTEX
  5
C83
  8
P_BUILDING_FACILITY
 10
-6023096.0284580327570438
 20
-33567252.352194719016552
 30
0.0
  0
VERTEX
  5
C84
  8
P_BUILDING_FACILITY
 10
-6022633.6934721134603024
 20
-33567819.0725961029529572
 30
0.0
  0
VERTEX
  5
C85
  8
P_BUILDING_FACILITY
 10
-6022163.7370445346459746
 20
-33568332.9334831088781357
 30
0.0
  0
VERTEX
  5
C86
  8
P_BUILDING_FACILITY
 10
-6021132.7973396815359592
 20
-33569360.7168567925691605
 30
0.0
  0
VERTEX
  5
C87
  8
P_BUILDING_FACILITY
 10
-6020594.5042077284306288
 20
-33569776.4467421621084213
 30
0.0
  0
VERTEX
  5
C88
  8
P_BUILDING_FACILITY
 10
-6020033.4594701863825321
 20
-33570199.7441009283065796
 30
0.0
  0
VERTEX
  5
C89
  8
P_BUILDING_FACILITY
 10
-6019419.3157711904495955
 20
-33570623.0773915797472
 30
0.0
  0
VERTEX
  5
C8A
  8
P_BUILDING_FACILITY
 10
-6018805.1106315702199936
 20
-33570955.7855557277798653
 30
0.0
  0
VERTEX
  5
C8B
  8
P_BUILDING_FACILITY
 10
-6018168.1283132005482912
 20
-33571258.3007277175784111
 30
0.0
  0
VERTEX
  5
C8C
  8
P_BUILDING_FACILITY
 10
-6003396.0723344385623932
 20
-33578095.3855777382850647
 30
0.0
  0
SEQEND
  5
C8D
  8
P_BUILDING_FACILITY
  0
POLYLINE
  5
283
  8
P_BUILDING_FACILITY
 66
     1
 10
0.0
 20
0.0
 30
0.0
 70
     1
  0
VERTEX
  5
C8E
  8
P_BUILDING_FACILITY
 10
-5957234.7054120032116771
 20
-33494137.7850752100348473
 30
0.0
  0
VERTEX
  5
C8F
  8
P_BUILDING_FACILITY
 10
-5938139.2390376459807158
 20
-33501339.9592213407158852
 30
0.0
  0
VERTEX
  5
C90
  8
P_BUILDING_FACILITY
 10
-5918128.2284284122288227
 20
-33455098.0227624885737896
 30
0.0
  0
VERTEX
  5
C91
  8
P_BUILDING_FACILITY
 10
-5917634.4141516704112291
 20
-33453958.0171884596347809
 30
0.0
  0
VERTEX
  5
C92
  8
P_BUILDING_FACILITY
 10
-5918127.2074052002280951
 20
-33453564.9910367615520954
 30
0.0
  0
VERTEX
  5
C93
  8
P_BUILDING_FACILITY
 10
-5927695.5768856722861528
 20
-33446844.988472368568182
 30
0.0
  0
VERTEX
  5
C94
  8
P_BUILDING_FACILITY
 10
-5933610.9639627421274781
 20
-33444945.517527561634779
 30
0.0
  0
VERTEX
  5
C95
  8
P_BUILDING_FACILITY
 10
-5935523.2441317578777671
 20
-33446061.9191931299865246
 30
0.0
  0
VERTEX
  5
C96
  8
P_BUILDING_FACILITY
 10
-5957234.7054120032116771
 20
-33494137.7850752100348473
 30
0.0
  0
SEQEND
  5
C97
  8
P_BUILDING_FACILITY
  0
POLYLINE
  5
28E
  8
P_BUILDING_FACILITY
 66
     1
 10
0.0
 20
0.0
 30
0.0
 70
     1
  0
VERTEX
  5
C98
  8
P_BUILDING_FACILITY
 10
-6035943.6609102571383119
 20
-33608530.9309624284505844
 30
0.0
  0
VERTEX
  5
C99
  8
P_BUILDING_FACILITY
 10
-6046829.7478335341438651
 20
-33631942.571493998169899
 30
0.0
  0
VERTEX
  5
C9A
  8
P_BUILDING_FACILITY
 10
-6040846.6622729804366827
 20
-33634831.5403260663151741
 30
0.0
  0
VERTEX
  5
C9B
  8
P_BUILDING_FACILITY
 10
-6038757.4676431817933917
 20
-33630195.9750644266605377
 30
0.0
  0
VERTEX
  5
C9C
  8
P_BUILDING_FACILITY
 10
-6038363.1391367111355066
 20
-33630377.493259109556675
 30
0.0
  0
VERTEX
  5
C9D
  8
P_BUILDING_FACILITY
 10
-6031834.1800440503284335
 20
-33633697.2962428033351898
 30
0.0
  0
VERTEX
  5
C9E
  8
P_BUILDING_FACILITY
 10
-6029129.7004542341455817
 20
-33627800.9467694312334061
 30
0.0
  0
VERTEX
  5
C9F
  8
P_BUILDING_FACILITY
 10
-6023029.2546868696808815
 20
-33614226.4198904186487198
 30
0.0
  0
VERTEX
  5
CA0
  8
P_BUILDING_FACILITY
 10
-6035943.6609102571383119
 20
-33608530.9309624284505844
 30
0.0
  0
SEQEND
  5
CA1
  8
P_BUILDING_FACILITY
  0
POLYLINE
  5
299
  8
P_BUILDING_RESIDENTIAL
 66
     1
 10
0.0
 20
0.0
 30
0.0
 70
     1
  0
VERTEX
  5
CA2
  8
P_BUILDING_RESIDENTIAL
 10
-6047024.1882718335837126
 20
-33516377.8475608788430691
 30
0.0
  0
VERTEX
  5
CA3
  8
P_BUILDING_RESIDENTIAL
 10
-6053124.9483627248555422
 20
-33530457.9560466483235359
 30
0.0
  0
VERTEX
  5
CA4
  8
P_BUILDING_RESIDENTIAL
 10
-6042030.5773026971146464
 20
-33535245.8484991304576397
 30
0.0
  0
VERTEX
  5
CA5
  8
P_BUILDING_RESIDENTIAL
 10
-6036051.1792755089700222
 20
-33521135.4425557516515255
 30
0.0
  0
VERTEX
  5
CA6
  8
P_BUILDING_RESIDENTIAL
 10
-6047024.1882718335837126
 20
-33516377.8475608788430691
 30
0.0
  0
SEQEND
  5
CA7
  8
P_BUILDING_RESIDENTIAL
  0
POLYLINE
  5
2A0
  8
P_BUILDING_RESIDENTIAL
 66
     1
 10
0.0
 20
0.0
 30
0.0
 70
     1
  0
VERTEX
  5
CA8
  8
P_BUILDING_RESIDENTIAL
 10
-6089933.7523052217438817
 20
-33563710.1784648299217224
 30
0.0
  0
VERTEX
  5
CA9
  8
P_BUILDING_RESIDENTIAL
 10
-6090142.6448404099792242
 20
-33564132.9525701627135277
 30
0.0
  0
VERTEX
  5
CAA
  8
P_BUILDING_RESIDENTIAL
 10
-6068720.6534608928486705
 20
-33574682.7793610617518425
 30
0.0
  0
VERTEX
  5
CAB
  8
P_BUILDING_RESIDENTIAL
 10
-6063361.5652248011901975
 20
-33563732.1253824308514595
 30
0.0
  0
VERTEX
  5
CAC
  8
P_BUILDING_RESIDENTIAL
 10
-6053520.7668154714629054
 20
-33543605.5148174688220024
 30
0.0
  0
VERTEX
  5
CAD
  8
P_BUILDING_RESIDENTIAL
 10
-6074927.5922513222321868
 20
-33533146.6517065986990929
 30
0.0
  0
VERTEX
  5
CAE
  8
P_BUILDING_RESIDENTIAL
 10
-6086142.8148547569289804
 20
-33527633.6545661985874176
 30
0.0
  0
VERTEX
  5
CAF
  8
P_BUILDING_RESIDENTIAL
 10
-6089234.5156400669366121
 20
-33534043.0853296890854836
 30
0.0
  0
VERTEX
  5
CB0
  8
P_BUILDING_RESIDENTIAL
 10
-6078049.6289740484207869
 20
-33539556.0655581802129745
 30
0.0
  0
VERTEX
  5
CB1
  8
P_BUILDING_RESIDENTIAL
 10
-6089933.7523052217438817
 20
-33563710.1784648299217224
 30
0.0
  0
SEQEND
  5
CB2
  8
P_BUILDING_RESIDENTIAL
  0
POLYLINE
  5
2AC
  8
P_BUILDING_RESIDENTIAL
 66
     1
 10
0.0
 20
0.0
 30
0.0
 70
     1
  0
VERTEX
  5
CB3
  8
P_BUILDING_RESIDENTIAL
 10
-6029127.8394357766956091
 20
-33513255.9765815101563931
 30
0.0
  0
VERTEX
  5
CB4
  8
P_BUILDING_RESIDENTIAL
 10
-6028854.3358395490795374
 20
-33512629.3558334186673164
 30
0.0
  0
VERTEX
  5
CB5
  8
P_BUILDING_RESIDENTIAL
 10
-6027236.1484283320605755
 20
-33508982.8939282484352589
 30
0.0
  0
VERTEX
  5
CB6
  8
P_BUILDING_RESIDENTIAL
 10
-6039528.4700159132480621
 20
-33503408.8097076192498207
 30
0.0
  0
VERTEX
  5
CB7
  8
P_BUILDING_RESIDENTIAL
 10
-6037241.6991471629589796
 20
-33498207.1159632690250874
 30
0.0
  0
VERTEX
  5
CB8
  8
P_BUILDING_RESIDENTIAL
 10
-6044824.981301206164062
 20
-33494947.0987737588584423
 30
0.0
  0
VERTEX
  5
CB9
  8
P_BUILDING_RESIDENTIAL
 10
-6049026.2366862427443266
 20
-33504459.6129941903054714
 30
0.0
  0
VERTEX
  5
CBA
  8
P_BUILDING_RESIDENTIAL
 10
-6030545.9042613124474883
 20
-33512628.2080051712691784
 30
0.0
  0
VERTEX
  5
CBB
  8
P_BUILDING_RESIDENTIAL
 10
-6029127.8394357766956091
 20
-33513255.9765815101563931
 30
0.0
  0
SEQEND
  5
CBC
  8
P_BUILDING_RESIDENTIAL
  0
POLYLINE
  5
2B7
  8
P_BUILDING_RESIDENTIAL
 66
     1
 10
0.0
 20
0.0
 30
0.0
 70
     1
  0
VERTEX
  5
CBD
  8
P_BUILDING_RESIDENTIAL
 10
-5934701.2006193222478032
 20
-33578141.5292076095938683
 30
0.0
  0
VERTEX
  5
CBE
  8
P_BUILDING_RESIDENTIAL
 10
-5934216.0472654309123755
 20
-33578625.1871973127126694
 30
0.0
  0
VERTEX
  5
CBF
  8
P_BUILDING_RESIDENTIAL
 10
-5933480.6912298472598195
 20
-33579290.2624752670526505
 30
0.0
  0
VERTEX
  5
CC0
  8
P_BUILDING_RESIDENTIAL
 10
-5932669.4542128071188927
 20
-33579917.6278832629323006
 30
0.0
  0
VERTEX
  5
CC1
  8
P_BUILDING_RESIDENTIAL
 10
-5931835.4452575193718076
 20
-33580522.3521386682987213
 30
0.0
  0
VERTEX
  5
CC2
  8
P_BUILDING_RESIDENTIAL
 10
-5930971.0334362722933292
 20
-33581036.471482127904892
 30
0.0
  0
VERTEX
  5
CC3
  8
P_BUILDING_RESIDENTIAL
 10
-5929158.7430516071617603
 20
-33582027.0051405131816864
 30
0.0
  0
VERTEX
  5
CC4
  8
P_BUILDING_RESIDENTIAL
 10
-5920885.319065822288394
 20
-33585680.1827389821410179
 30
0.0
  0
VERTEX
  5
CC5
  8
P_BUILDING_RESIDENTIAL
 10
-5917565.4105666866526008
 20
-33578152.9568817317485809
 30
0.0
  0
VERTEX
  5
CC6
  8
P_BUILDING_RESIDENTIAL
 10
-5911282.6211427012458444
 20
-33563834.5928710475564003
 30
0.0
  0
VERTEX
  5
CC7
  8
P_BUILDING_RESIDENTIAL
 10
-5906504.0705174878239632
 20
-33552947.9556056000292301
 30
0.0
  0
VERTEX
  5
CC8
  8
P_BUILDING_RESIDENTIAL
 10
-5906490.527532022446394
 20
-33532572.9849524982273579
 30
0.0
  0
VERTEX
  5
CC9
  8
P_BUILDING_RESIDENTIAL
 10
-5923151.7540469532832503
 20
-33526301.3838545605540276
 30
0.0
  0
VERTEX
  5
CCA
  8
P_BUILDING_RESIDENTIAL
 10
-5924412.6975032184273005
 20
-33528921.0466488115489483
 30
0.0
  0
VERTEX
  5
CCB
  8
P_BUILDING_RESIDENTIAL
 10
-5927997.9609443675726652
 20
-33536259.0857842490077019
 30
0.0
  0
VERTEX
  5
CCC
  8
P_BUILDING_RESIDENTIAL
 10
-5929274.0782980984076858
 20
-33538878.7377315908670425
 30
0.0
  0
VERTEX
  5
CCD
  8
P_BUILDING_RESIDENTIAL
 10
-5930238.7460367484018207
 20
-33540834.0316539704799652
 30
0.0
  0
VERTEX
  5
CCE
  8
P_BUILDING_RESIDENTIAL
 10
-5938222.0615970073267817
 20
-33557170.9745549485087395
 30
0.0
  0
VERTEX
  5
CCF
  8
P_BUILDING_RESIDENTIAL
 10
-5938617.1105992924422026
 20
-33558069.384587749838829
 30
0.0
  0
VERTEX
  5
CD0
  8
P_BUILDING_RESIDENTIAL
 10
-5938959.1062706019729376
 20
-33559035.7969998195767403
 30
0.0
  0
VERTEX
  5
CD1
  8
P_BUILDING_RESIDENTIAL
 10
-5939308.6825153846293688
 20
-33559994.6524497866630554
 30
0.0
  0
VERTEX
  5
CD2
  8
P_BUILDING_RESIDENTIAL
 10
-5939552.0863792421296239
 20
-33560991.3382655009627342
 30
0.0
  0
VERTEX
  5
CD3
  8
P_BUILDING_RESIDENTIAL
 10
-5939772.7487862883135676
 20
-33562010.6949208080768585
 30
0.0
  0
VERTEX
  5
CD4
  8
P_BUILDING_RESIDENTIAL
 10
-5939925.1059467187151313
 20
-33562977.2340501472353935
 30
0.0
  0
VERTEX
  5
CD5
  8
P_BUILDING_RESIDENTIAL
 10
-5940009.1048260806128383
 20
-33563811.6609252095222473
 30
0.0
  0
VERTEX
  5
CD6
  8
P_BUILDING_RESIDENTIAL
 10
-5940024.39708854816854
 20
-33563992.9009544402360916
 30
0.0
  0
VERTEX
  5
CD7
  8
P_BUILDING_RESIDENTIAL
 10
-5940047.8403089977800846
 20
-33565019.9700393229722977
 30
0.0
  0
VERTEX
  5
CD8
  8
P_BUILDING_RESIDENTIAL
 10
-5940025.7449676133692265
 20
-33566009.3090955689549446
 30
0.0
  0
VERTEX
  5
CD9
  8
P_BUILDING_RESIDENTIAL
 10
-5939950.555785758420825
 20
-33567006.2357349768280983
 30
0.0
  0
VERTEX
  5
CDA
  8
P_BUILDING_RESIDENTIAL
 10
-5939829.8885874170809984
 20
-33568056.0574262514710426
 30
0.0
  0
VERTEX
  5
CDB
  8
P_BUILDING_RESIDENTIAL
 10
-5939656.0871288049966097
 20
-33569053.0499749109148979
 30
0.0
  0
VERTEX
  5
CDC
  8
P_BUILDING_RESIDENTIAL
 10
-5939414.0105638122186065
 20
-33570042.5360578894615173
 30
0.0
  0
VERTEX
  5
CDD
  8
P_BUILDING_RESIDENTIAL
 10
-5939096.0632191486656666
 20
-33571009.4165597781538963
 30
0.0
  0
VERTEX
  5
CDE
  8
P_BUILDING_RESIDENTIAL
 10
-5938778.1107578761875629
 20
-33571968.7449600473046303
 30
0.0
  0
VERTEX
  5
CDF
  8
P_BUILDING_RESIDENTIAL
 10
-5938361.530809735879302
 20
-33572905.4829754009842873
 30
0.0
  0
VERTEX
  5
CE0
  8
P_BUILDING_RESIDENTIAL
 10
-5937914.5631096130236983
 20
-33573774.2724324986338615
 30
0.0
  0
VERTEX
  5
CE1
  8
P_BUILDING_RESIDENTIAL
 10
-5937399.3706834577023983
 20
-33574711.0762940868735313
 30
0.0
  0
VERTEX
  5
CE2
  8
P_BUILDING_RESIDENTIAL
 10
-5936861.3407348487526178
 20
-33575527.0618840679526329
 30
0.0
  0
VERTEX
  5
CE3
  8
P_BUILDING_RESIDENTIAL
 10
-5936270.2268808279186487
 20
-33576365.7391824796795845
 30
0.0
  0
VERTEX
  5
CE4
  8
P_BUILDING_RESIDENTIAL
 10
-5935663.9266539448872209
 20
-33577181.7703028470277786
 30
0.0
  0
VERTEX
  5
CE5
  8
P_BUILDING_RESIDENTIAL
 10
-5934951.3830176219344139
 20
-33577929.9034973606467247
 30
0.0
  0
VERTEX
  5
CE6
  8
P_BUILDING_RESIDENTIAL
 10
-5934701.2006193222478032
 20
-33578141.5292076095938683
 30
0.0
  0
SEQEND
  5
CE7
  8
P_BUILDING_RESIDENTIAL
  0
POLYLINE
  5
2E3
  8
P_BUILDING_RESIDENTIAL
 66
     1
 10
0.0
 20
0.0
 30
0.0
 70
     1
  0
VERTEX
  5
CE8
  8
P_BUILDING_RESIDENTIAL
 10
-5924499.9536089180037379
 20
-33477756.9796243011951447
 30
0.0
  0
VERTEX
  5
CE9
  8
P_BUILDING_RESIDENTIAL
 10
-5933130.5407219510525465
 20
-33497944.9574325494468212
 30
0.0
  0
VERTEX
  5
CEA
  8
P_BUILDING_RESIDENTIAL
 10
-5917417.8437195215374231
 20
-33504638.8514855317771435
 30
0.0
  0
VERTEX
  5
CEB
  8
P_BUILDING_RESIDENTIAL
 10
-5908817.6478955121710896
 20
-33484481.0459995716810226
 30
0.0
  0
VERTEX
  5
CEC
  8
P_BUILDING_RESIDENTIAL
 10
-5924499.9536089180037379
 20
-33477756.9796243011951447
 30
0.0
  0
SEQEND
  5
CED
  8
P_BUILDING_RESIDENTIAL
  0
POLYLINE
  5
2EA
  8
P_BUILDING_RESIDENTIAL
 66
     1
 10
0.0
 20
0.0
 30
0.0
 70
     1
  0
VERTEX
  5
CEE
  8
P_BUILDING_RESIDENTIAL
 10
-6047467.4509223271161318
 20
-33476647.0867662094533443
 30
0.0
  0
VERTEX
  5
CEF
  8
P_BUILDING_RESIDENTIAL
 10
-6052527.6196585083380342
 20
-33488741.759190771728754
 30
0.0
  0
VERTEX
  5
CF0
  8
P_BUILDING_RESIDENTIAL
 10
-6036034.1124597499147058
 20
-33496010.3382346108555794
 30
0.0
  0
VERTEX
  5
CF1
  8
P_BUILDING_RESIDENTIAL
 10
-6029622.8850155435502529
 20
-33482647.8570087589323521
 30
0.0
  0
VERTEX
  5
CF2
  8
P_BUILDING_RESIDENTIAL
 10
-6047467.4509223271161318
 20
-33476647.0867662094533443
 30
0.0
  0
SEQEND
  5
CF3
  8
P_BUILDING_RESIDENTIAL
  0
POLYLINE
  5
2F1
  8
P_BUILDING_RESIDENTIAL
 66
     1
 10
0.0
 20
0.0
 30
0.0
 70
     1
  0
VERTEX
  5
CF4
  8
P_BUILDING_RESIDENTIAL
 10
-6029031.72972740419209
 20
-33483403.4464848190546036
 30
0.0
  0
VERTEX
  5
CF5
  8
P_BUILDING_RESIDENTIAL
 10
-6037737.9018604280427098
 20
-33502836.0833761505782604
 30
0.0
  0
VERTEX
  5
CF6
  8
P_BUILDING_RESIDENTIAL
 10
-6026325.2578214043751359
 20
-33508054.6300728917121887
 30
0.0
  0
VERTEX
  5
CF7
  8
P_BUILDING_RESIDENTIAL
 10
-6016124.0077174352481961
 20
-33487505.3157729804515839
 30
0.0
  0
VERTEX
  5
CF8
  8
P_BUILDING_RESIDENTIAL
 10
-6029031.72972740419209
 20
-33483403.4464848190546036
 30
0.0
  0
SEQEND
  5
CF9
  8
P_BUILDING_RESIDENTIAL
  0
POLYLINE
  5
2F8
  8
P_BUILDING_RESIDENTIAL
 66
     1
 10
0.0
 20
0.0
 30
0.0
 70
     1
  0
VERTEX
  5
CFA
  8
P_BUILDING_RESIDENTIAL
 10
-6065330.4034572690725327
 20
-33608752.5887199193239212
 30
0.0
  0
VERTEX
  5
CFB
  8
P_BUILDING_RESIDENTIAL
 10
-6059044.0445235036313534
 20
-33611830.579274408519268
 30
0.0
  0
VERTEX
  5
CFC
  8
P_BUILDING_RESIDENTIAL
 10
-6057031.1546522499993443
 20
-33607859.5503426417708397
 30
0.0
  0
VERTEX
  5
CFD
  8
P_BUILDING_RESIDENTIAL
 10
-6058032.1024297876283526
 20
-33607345.325669102370739
 30
0.0
  0
VERTEX
  5
CFE
  8
P_BUILDING_RESIDENTIAL
 10
-6057743.4381721615791321
 20
-33606741.354973167181015
 30
0.0
  0
VERTEX
  5
CFF
  8
P_BUILDING_RESIDENTIAL
 10
-6054644.3550889091566205
 20
-33600633.8233771696686745
 30
0.0
  0
VERTEX
  5
D00
  8
P_BUILDING_RESIDENTIAL
 10
-6060119.5860487828031182
 20
-33598341.8068021386861801
 30
0.0
  0
VERTEX
  5
D01
  8
P_BUILDING_RESIDENTIAL
 10
-6065330.4034572690725327
 20
-33608752.5887199193239212
 30
0.0
  0
SEQEND
  5
D02
  8
P_BUILDING_RESIDENTIAL
  0
POLYLINE
  5
302
  8
P_BUILDING_RESIDENTIAL
 66
     1
 10
0.0
 20
0.0
 30
0.0
 70
     1
  0
VERTEX
  5
D03
  8
P_BUILDING_RESIDENTIAL
 10
-6054644.3550889091566205
 20
-33600633.8233771696686745
 30
0.0
  0
VERTEX
  5
D04
  8
P_BUILDING_RESIDENTIAL
 10
-6057743.4381721615791321
 20
-33606741.354973167181015
 30
0.0
  0
VERTEX
  5
D05
  8
P_BUILDING_RESIDENTIAL
 10
-6054330.8647189671173692
 20
-33608125.7137562707066536
 30
0.0
  0
VERTEX
  5
D06
  8
P_BUILDING_RESIDENTIAL
 10
-6051626.1722043203189969
 20
-33601927.2872927710413933
 30
0.0
  0
VERTEX
  5
D07
  8
P_BUILDING_RESIDENTIAL
 10
-6054644.3550889091566205
 20
-33600633.8233771696686745
 30
0.0
  0
SEQEND
  5
D08
  8
P_BUILDING_RESIDENTIAL
  0
POLYLINE
  5
309
  8
P_BUILDING_RESIDENTIAL
 66
     1
 10
0.0
 20
0.0
 30
0.0
 70
     1
  0
VERTEX
  5
D09
  8
P_BUILDING_RESIDENTIAL
 10
-6051626.1722043203189969
 20
-33601927.2872927710413933
 30
0.0
  0
VERTEX
  5
D0A
  8
P_BUILDING_RESIDENTIAL
 10
-6054330.8647189671173692
 20
-33608125.7137562707066536
 30
0.0
  0
VERTEX
  5
D0B
  8
P_BUILDING_RESIDENTIAL
 10
-6042159.5356267420575023
 20
-33613344.942334920167923
 30
0.0
  0
VERTEX
  5
D0C
  8
P_BUILDING_RESIDENTIAL
 10
-6039136.2758085681125522
 20
-33607176.9371061772108078
 30
0.0
  0
VERTEX
  5
D0D
  8
P_BUILDING_RESIDENTIAL
 10
-6051626.1722043203189969
 20
-33601927.2872927710413933
 30
0.0
  0
SEQEND
  5
D0E
  8
P_BUILDING_RESIDENTIAL
  0
POLYLINE
  5
310
  8
P_BUILDING_MISC
 66
     1
 10
0.0
 20
0.0
 30
0.0
 70
     1
  0
VERTEX
  5
D0F
  8
P_BUILDING_MISC
 10
-5964464.925176102668047
 20
-33563795.2796832174062729
 30
0.0
  0
VERTEX
  5
D10
  8
P_BUILDING_MISC
 10
-5967837.8047146927565336
 20
-33571080.7856718525290489
 30
0.0
  0
VERTEX
  5
D11
  8
P_BUILDING_MISC
 10
-5966418.6968059400096536
 20
-33570175.4873581677675247
 30
0.0
  0
VERTEX
  5
D12
  8
P_BUILDING_MISC
 10
-5964946.4953587483614683
 20
-33569277.7765468880534172
 30
0.0
  0
VERTEX
  5
D13
  8
P_BUILDING_MISC
 10
-5963443.9671884039416909
 20
-33568402.7421268224716187
 30
0.0
  0
VERTEX
  5
D14
  8
P_BUILDING_MISC
 10
-5961850.5342523045837879
 20
-33567709.0186920166015625
 30
0.0
  0
VERTEX
  5
D15
  8
P_BUILDING_MISC
 10
-5960302.6402212977409363
 20
-33567053.0248956307768822
 30
0.0
  0
VERTEX
  5
D16
  8
P_BUILDING_MISC
 10
-5958678.9465826684609056
 20
-33566480.1546892523765564
 30
0.0
  0
VERTEX
  5
D17
  8
P_BUILDING_MISC
 10
-5957032.5572389550507069
 20
-33565997.9245272576808929
 30
0.0
  0
VERTEX
  5
D18
  8
P_BUILDING_MISC
 10
-5955340.6952459458261728
 20
-33565576.1412843316793442
 30
0.0
  0
VERTEX
  5
D19
  8
P_BUILDING_MISC
 10
-5953671.6963312728330493
 20
-33565312.9363728389143944
 30
0.0
  0
VERTEX
  5
D1A
  8
P_BUILDING_MISC
 10
-5951949.5935835121199489
 20
-33565042.214622437953949
 30
0.0
  0
VERTEX
  5
D1B
  8
P_BUILDING_MISC
 10
-5950652.4032866097986698
 20
-33564952.4582558795809746
 30
0.0
  0
VERTEX
  5
D1C
  8
P_BUILDING_MISC
 10
-5950257.9342928361147642
 20
-33564922.5140289217233658
 30
0.0
  0
VERTEX
  5
D1D
  8
P_BUILDING_MISC
 10
-5948862.1520638111978769
 20
-33564863.031795360147953
 30
0.0
  0
VERTEX
  5
D1E
  8
P_BUILDING_MISC
 10
-5948543.5588324591517448
 20
-33564863.2450712472200394
 30
0.0
  0
VERTEX
  5
D1F
  8
P_BUILDING_MISC
 10
-5947117.495065257884562
 20
-33564894.4079592227935791
 30
0.0
  0
VERTEX
  5
D20
  8
P_BUILDING_MISC
 10
-5946844.4151481576263905
 20
-33564894.590714618563652
 30
0.0
  0
VERTEX
  5
D21
  8
P_BUILDING_MISC
 10
-5945107.4043210716918111
 20
-33565016.586493007838726
 30
0.0
  0
VERTEX
  5
D22
  8
P_BUILDING_MISC
 10
-5943385.6049604350700974
 20
-33565198.9885085597634315
 30
0.0
  0
VERTEX
  5
D23
  8
P_BUILDING_MISC
 10
-5941959.7027167417109013
 20
-33565471.817461833357811
 30
0.0
  0
VERTEX
  5
D24
  8
P_BUILDING_MISC
 10
-5941663.8863238133490086
 20
-33565502.2236378118395805
 30
0.0
  0
VERTEX
  5
D25
  8
P_BUILDING_MISC
 10
-5940025.7449676133692265
 20
-33566009.3090955689549446
 30
0.0
  0
VERTEX
  5
D26
  8
P_BUILDING_MISC
 10
-5940047.8403089977800846
 20
-33565019.9700393229722977
 30
0.0
  0
VERTEX
  5
D27
  8
P_BUILDING_MISC
 10
-5940024.39708854816854
 20
-33563992.9009544402360916
 30
0.0
  0
VERTEX
  5
D28
  8
P_BUILDING_MISC
 10
-5940009.1073501948267221
 20
-33563815.4369699880480766
 30
0.0
  0
VERTEX
  5
D29
  8
P_BUILDING_MISC
 10
-5939925.1059467187151313
 20
-33562977.2340501472353935
 30
0.0
  0
VERTEX
  5
D2A
  8
P_BUILDING_MISC
 10
-5939772.7487862883135676
 20
-33562010.6949208080768585
 30
0.0
  0
VERTEX
  5
D2B
  8
P_BUILDING_MISC
 10
-5939552.0863792421296239
 20
-33560991.3382655009627342
 30
0.0
  0
VERTEX
  5
D2C
  8
P_BUILDING_MISC
 10
-5939308.6825153846293688
 20
-33559994.6524497866630554
 30
0.0
  0
VERTEX
  5
D2D
  8
P_BUILDING_MISC
 10
-5938959.1062706019729376
 20
-33559035.7969998195767403
 30
0.0
  0
VERTEX
  5
D2E
  8
P_BUILDING_MISC
 10
-5938617.1105992924422026
 20
-33558069.384587749838829
 30
0.0
  0
VERTEX
  5
D2F
  8
P_BUILDING_MISC
 10
-5938222.0615970073267817
 20
-33557170.9745549485087395
 30
0.0
  0
VERTEX
  5
D30
  8
P_BUILDING_MISC
 10
-5930238.7460367484018207
 20
-33540834.0316539704799652
 30
0.0
  0
VERTEX
  5
D31
  8
P_BUILDING_MISC
 10
-5932052.0462613934651017
 20
-33541369.0050252117216587
 30
0.0
  0
VERTEX
  5
D32
  8
P_BUILDING_MISC
 10
-5933872.8969360487535596
 20
-33541851.1098047383129597
 30
0.0
  0
VERTEX
  5
D33
  8
P_BUILDING_MISC
 10
-5935708.8381702024489641
 20
-33542212.3740063086152077
 30
0.0
  0
VERTEX
  5
D34
  8
P_BUILDING_MISC
 10
-5937575.0813183393329382
 20
-33542513.2025188095867634
 30
0.0
  0
VERTEX
  5
D35
  8
P_BUILDING_MISC
 10
-5939441.2640242483466864
 20
-33542723.408087931573391
 30
0.0
  0
VERTEX
  5
D36
  8
P_BUILDING_MISC
 10
-5941307.3660293528810143
 20
-33542812.7831923887133598
 30
0.0
  0
VERTEX
  5
D37
  8
P_BUILDING_MISC
 10
-5943226.5264077112078667
 20
-33542841.7073563598096371
 30
0.0
  0
VERTEX
  5
D38
  8
P_BUILDING_MISC
 10
-5945092.5274285124614835
 20
-33542780.0440783314406872
 30
0.0
  0
VERTEX
  5
D39
  8
P_BUILDING_MISC
 10
-5946950.8822415834292769
 20
-33542627.7629305683076382
 30
0.0
  0
VERTEX
  5
D3A
  8
P_BUILDING_MISC
 10
-5948816.7416408332064748
 20
-33542354.6462466083467007
 30
0.0
  0
VERTEX
  5
D3B
  8
P_BUILDING_MISC
 10
-5950682.5604639975354075
 20
-33542021.1141327805817127
 30
0.0
  0
VERTEX
  5
D3C
  8
P_BUILDING_MISC
 10
-5952502.8052419126033783
 20
-33541596.989563450217247
 30
0.0
  0
VERTEX
  5
D3D
  8
P_BUILDING_MISC
 10
-5954315.4288940178230405
 20
-33541120.0065461695194244
 30
0.0
  0
VERTEX
  5
D3E
  8
P_BUILDING_MISC
 10
-5956082.4531084382906556
 20
-33540514.6717146784067154
 30
0.0
  0
VERTEX
  5
D3F
  8
P_BUILDING_MISC
 10
-5957849.4163209777325392
 20
-33539818.7139773182570934
 30
0.0
  0
VERTEX
  5
D40
  8
P_BUILDING_MISC
 10
-5959570.8306206567212939
 20
-33539069.9232544302940369
 30
0.0
  0
VERTEX
  5
D41
  8
P_BUILDING_MISC
 10
-5959298.0705635575577617
 20
-33539545.8748009987175465
 30
0.0
  0
VERTEX
  5
D42
  8
P_BUILDING_MISC
 10
-5958934.4309586100280285
 20
-33540240.8918848484754562
 30
0.0
  0
VERTEX
  5
D43
  8
P_BUILDING_MISC
 10
-5958616.2639801483601332
 20
-33540875.4633979089558125
 30
0.0
  0
VERTEX
  5
D44
  8
P_BUILDING_MISC
 10
-5958366.4224550994113088
 20
-33541593.0597974210977554
 30
0.0
  0
VERTEX
  5
D45
  8
P_BUILDING_MISC
 10
-5958146.9078351547941566
 20
-33542287.9802058413624763
 30
0.0
  0
VERTEX
  5
D46
  8
P_BUILDING_MISC
 10
-5957950.1700380789116025
 20
-33543013.0928685404360294
 30
0.0
  0
VERTEX
  5
D47
  8
P_BUILDING_MISC
 10
-5957806.5258900839835405
 20
-33543730.6180458292365074
 30
0.0
  0
VERTEX
  5
D48
  8
P_BUILDING_MISC
 10
-5957708.3999971523880959
 20
-33544455.6645854189991951
 30
0.0
  0
VERTEX
  5
D49
  8
P_BUILDING_MISC
 10
-5957633.0712022958323359
 20
-33545241.1109027303755283
 30
0.0
  0
VERTEX
  5
D4A
  8
P_BUILDING_MISC
 10
-5957634.0585051421076059
 20
-33546713.7273862101137638
 30
0.0
  0
VERTEX
  5
D4B
  8
P_BUILDING_MISC
 10
-5957687.6787704490125179
 20
-33547491.5353626497089863
 30
0.0
  0
VERTEX
  5
D4C
  8
P_BUILDING_MISC
 10
-5957786.7565843872725964
 20
-33548186.2421517409384251
 30
0.0
  0
VERTEX
  5
D4D
  8
P_BUILDING_MISC
 10
-5958083.5799774322658777
 20
-33549658.6602786406874657
 30
0.0
  0
VERTEX
  5
D4E
  8
P_BUILDING_MISC
 10
-5958326.7831211546435952
 20
-33550353.2704234384000301
 30
0.0
  0
VERTEX
  5
D4F
  8
P_BUILDING_MISC
 10
-5958570.0065605826675892
 20
-33551078.0880774483084679
 30
0.0
  0
VERTEX
  5
D50
  8
P_BUILDING_MISC
 10
-5958866.2629963383078575
 20
-33551704.6956850588321686
 30
0.0
  0
VERTEX
  5
D51
  8
P_BUILDING_MISC
 10
-5964464.925176102668047
 20
-33563795.2796832174062729
 30
0.0
  0
SEQEND
  5
D52
  8
P_BUILDING_MISC
  0
POLYLINE
  5
355
  8
P_BUILDING_MISC
 66
     1
 10
0.0
 20
0.0
 30
0.0
 70
     1
  0
VERTEX
  5
D53
  8
P_BUILDING_MISC
 10
-5999204.9177800826728344
 20
-33516108.1849373504519463
 30
0.0
  0
VERTEX
  5
D54
  8
P_BUILDING_MISC
 10
-6000238.3576181028038263
 20
-33518788.4057079702615738
 30
0.0
  0
VERTEX
  5
D55
  8
P_BUILDING_MISC
 10
-5994710.1177471401169896
 20
-33521163.4281976781785488
 30
0.0
  0
VERTEX
  5
D56
  8
P_BUILDING_MISC
 10
-5993585.5359836081042886
 20
-33518309.574959721416235
 30
0.0
  0
VERTEX
  5
D57
  8
P_BUILDING_MISC
 10
-5995124.9876102833077312
 20
-33517704.3858208581805229
 30
0.0
  0
VERTEX
  5
D58
  8
P_BUILDING_MISC
 10
-5999204.9177800826728344
 20
-33516108.1849373504519463
 30
0.0
  0
SEQEND
  5
D59
  8
P_BUILDING_MISC
  0
POLYLINE
  5
35D
  8
P_BUILDING_MISC
 66
     1
 10
0.0
 20
0.0
 30
0.0
 70
     1
  0
VERTEX
  5
D5A
  8
P_BUILDING_MISC
 10
-5995124.9876102833077312
 20
-33517704.3858208581805229
 30
0.0
  0
VERTEX
  5
D5B
  8
P_BUILDING_MISC
 10
-5995690.4921966204419732
 20
-33512651.7944076098501682
 30
0.0
  0
VERTEX
  5
D5C
  8
P_BUILDING_MISC
 10
-5996881.3424923922866583
 20
-33501300.5102169699966908
 30
0.0
  0
VERTEX
  5
D5D
  8
P_BUILDING_MISC
 10
-5995679.6489731315523386
 20
-33496581.3939999490976334
 30
0.0
  0
VERTEX
  5
D5E
  8
P_BUILDING_MISC
 10
-5995040.8013474820181727
 20
-33494112.3591460511088371
 30
0.0
  0
VERTEX
  5
D5F
  8
P_BUILDING_MISC
 10
-5994249.8367187026888132
 20
-33491039.2761743888258934
 30
0.0
  0
VERTEX
  5
D60
  8
P_BUILDING_MISC
 10
-5992454.9145654058083892
 20
-33484002.1313629895448685
 30
0.0
  0
VERTEX
  5
D61
  8
P_BUILDING_MISC
 10
-5992135.448317757807672
 20
-33482703.4228235818445683
 30
0.0
  0
VERTEX
  5
D62
  8
P_BUILDING_MISC
 10
-5990043.8610205259174109
 20
-33474427.9685720801353455
 30
0.0
  0
VERTEX
  5
D63
  8
P_BUILDING_MISC
 10
-5990976.6556282611563802
 20
-33474102.608724519610405
 30
0.0
  0
VERTEX
  5
D64
  8
P_BUILDING_MISC
 10
-5992129.4849707502871752
 20
-33473860.1711228489875793
 30
0.0
  0
VERTEX
  5
D65
  8
P_BUILDING_MISC
 10
-5993259.4763330090790987
 20
-33473496.9186378791928291
 30
0.0
  0
VERTEX
  5
D66
  8
P_BUILDING_MISC
 10
-5994632.1824165266007185
 20
-33473103.2947368882596493
 30
0.0
  0
VERTEX
  5
D67
  8
P_BUILDING_MISC
 10
-5995742.158585955388844
 20
-33476802.9688496105372906
 30
0.0
  0
VERTEX
  5
D68
  8
P_BUILDING_MISC
 10
-5994361.9480115389451385
 20
-33477317.4281203709542751
 30
0.0
  0
VERTEX
  5
D69
  8
P_BUILDING_MISC
 10
-5995669.7789567010477185
 20
-33481953.4023123197257519
 30
0.0
  0
VERTEX
  5
D6A
  8
P_BUILDING_MISC
 10
-5996034.7942650839686394
 20
-33483304.9431773200631142
 30
0.0
  0
VERTEX
  5
D6B
  8
P_BUILDING_MISC
 10
-5998004.0681323716416955
 20
-33490168.2762732915580273
 30
0.0
  0
VERTEX
  5
D6C
  8
P_BUILDING_MISC
 10
-5998893.640281593427062
 20
-33493233.7404629401862621
 30
0.0
  0
VERTEX
  5
D6D
  8
P_BUILDING_MISC
 10
-5999608.3234612233936787
 20
-33495672.5163091905415058
 30
0.0
  0
VERTEX
  5
D6E
  8
P_BUILDING_MISC
 10
-6001159.4414748232811689
 20
-33501116.3768343515694141
 30
0.0
  0
VERTEX
  5
D6F
  8
P_BUILDING_MISC
 10
-5999619.7856526970863342
 20
-33512649.1423211991786957
 30
0.0
  0
VERTEX
  5
D70
  8
P_BUILDING_MISC
 10
-5999204.9177800826728344
 20
-33516108.1849373504519463
 30
0.0
  0
VERTEX
  5
D71
  8
P_BUILDING_MISC
 10
-5995124.9876102833077312
 20
-33517704.3858208581805229
 30
0.0
  0
SEQEND
  5
D72
  8
P_BUILDING_MISC
  0
POLYLINE
  5
377
  8
P_BUILDING_MISC
 66
     1
 10
0.0
 20
0.0
 30
0.0
 70
     1
  0
VERTEX
  5
D73
  8
P_BUILDING_MISC
 10
-6059727.4749523773789406
 20
-33535029.8971834890544415
 30
0.0
  0
VERTEX
  5
D74
  8
P_BUILDING_MISC
 10
-6050260.6411768207326531
 20
-33512614.806651808321476
 30
0.0
  0
VERTEX
  5
D75
  8
P_BUILDING_MISC
 10
-6050017.5141356931999326
 20
-33512041.0290542617440224
 30
0.0
  0
VERTEX
  5
D76
  8
P_BUILDING_MISC
 10
-6077628.4259796626865864
 20
-33500437.5981854200363159
 30
0.0
  0
VERTEX
  5
D77
  8
P_BUILDING_MISC
 10
-6082764.5456991828978062
 20
-33512592.6161878108978271
 30
0.0
  0
VERTEX
  5
D78
  8
P_BUILDING_MISC
 10
-6084656.4244955591857433
 20
-33517099.7953058108687401
 30
0.0
  0
VERTEX
  5
D79
  8
P_BUILDING_MISC
 10
-6070354.2389638749882579
 20
-33523098.220549650490284
 30
0.0
  0
VERTEX
  5
D7A
  8
P_BUILDING_MISC
 10
-6069320.9270446877926588
 20
-33520637.0124363899230957
 30
0.0
  0
VERTEX
  5
D7B
  8
P_BUILDING_MISC
 10
-6065074.2702782349660993
 20
-33522444.8120523616671562
 30
0.0
  0
VERTEX
  5
D7C
  8
P_BUILDING_MISC
 10
-6068759.2236560024321079
 20
-33531194.9288005791604519
 30
0.0
  0
VERTEX
  5
D7D
  8
P_BUILDING_MISC
 10
-6059727.4749523773789406
 20
-33535029.8971834890544415
 30
0.0
  0
SEQEND
  5
D7E
  8
P_BUILDING_MISC
  0
POLYLINE
  5
384
  8
P_BUILDING_MISC
 66
     1
 10
0.0
 20
0.0
 30
0.0
 70
     1
  0
VERTEX
  5
D7F
  8
P_BUILDING_MISC
 10
-5977625.453173566609621
 20
-33518078.6653346195816994
 30
0.0
  0
VERTEX
  5
D80
  8
P_BUILDING_MISC
 10
-5977945.3199089551344514
 20
-33519973.9728218391537666
 30
0.0
  0
VERTEX
  5
D81
  8
P_BUILDING_MISC
 10
-5975806.4688143683597445
 20
-33520368.1093615889549255
 30
0.0
  0
VERTEX
  5
D82
  8
P_BUILDING_MISC
 10
-5975486.6025213673710823
 20
-33518472.8017986007034779
 30
0.0
  0
VERTEX
  5
D83
  8
P_BUILDING_MISC
 10
-5977625.453173566609621
 20
-33518078.6653346195816994
 30
0.0
  0
SEQEND
  5
D84
  8
P_BUILDING_MISC
  0
POLYLINE
  5
38B
  8
P_BUILDING_MISC
 66
     1
 10
0.0
 20
0.0
 30
0.0
 70
     1
  0
VERTEX
  5
D85
  8
P_BUILDING_MISC
 10
-6070888.0365663086995482
 20
-33482801.0056546181440353
 30
0.0
  0
VERTEX
  5
D86
  8
P_BUILDING_MISC
 10
-6075020.9621431762352586
 20
-33492192.7243452593684196
 30
0.0
  0
VERTEX
  5
D87
  8
P_BUILDING_MISC
 10
-6050989.7296988749876618
 20
-33502766.6542681492865086
 30
0.0
  0
VERTEX
  5
D88
  8
P_BUILDING_MISC
 10
-6046864.4152869684621692
 20
-33493382.4712940081954002
 30
0.0
  0
VERTEX
  5
D89
  8
P_BUILDING_MISC
 10
-6070888.0365663086995482
 20
-33482801.0056546181440353
 30
0.0
  0
SEQEND
  5
D8A
  8
P_BUILDING_MISC
  0
POLYLINE
  5
392
  8
P_BUILDING_MISC
 66
     1
 10
0.0
 20
0.0
 30
0.0
 70
     1
  0
VERTEX
  5
D8B
  8
P_BUILDING_MISC
 10
-6021609.012650647200644
 20
-33578083.0625433027744293
 30
0.0
  0
VERTEX
  5
D8C
  8
P_BUILDING_MISC
 10
-6022520.56508778501302
 20
-33579978.0203340873122215
 30
0.0
  0
VERTEX
  5
D8D
  8
P_BUILDING_MISC
 10
-6018516.6495704315602779
 20
-33581846.1001837030053139
 30
0.0
  0
VERTEX
  5
D8E
  8
P_BUILDING_MISC
 10
-6017756.9727767575532198
 20
-33580192.7061383500695229
 30
0.0
  0
VERTEX
  5
D8F
  8
P_BUILDING_MISC
 10
-6008452.4140018876641989
 20
-33584533.9041004404425621
 30
0.0
  0
VERTEX
  5
D90
  8
P_BUILDING_MISC
 10
-6007495.2894274070858955
 20
-33582548.3505678027868271
 30
0.0
  0
VERTEX
  5
D91
  8
P_BUILDING_MISC
 10
-6017065.2595269018784165
 20
-33578086.1403805911540985
 30
0.0
  0
VERTEX
  5
D92
  8
P_BUILDING_MISC
 10
-6020796.1752581279724836
 20
-33576339.0796467885375023
 30
0.0
  0
VERTEX
  5
D93
  8
P_BUILDING_MISC
 10
-6021609.012650647200644
 20
-33578083.0625433027744293
 30
0.0
  0
SEQEND
  5
D94
  8
P_BUILDING_MISC
  0
POLYLINE
  5
39D
  8
P_BUILDING_MISC
 66
     1
 10
0.0
 20
0.0
 30
0.0
 70
     1
  0
VERTEX
  5
D95
  8
P_BUILDING_MISC
 10
-6054429.8684407826513052
 20
-33608699.6054099723696709
 30
0.0
  0
VERTEX
  5
D96
  8
P_BUILDING_MISC
 10
-6059839.512443358078599
 20
-33621458.9559545964002609
 30
0.0
  0
VERTEX
  5
D97
  8
P_BUILDING_MISC
 10
-6053628.6642540227621794
 20
-33624046.0050399601459503
 30
0.0
  0
VERTEX
  5
D98
  8
P_BUILDING_MISC
 10
-6051516.7138186302036047
 20
-33619418.0102902203798294
 30
0.0
  0
VERTEX
  5
D99
  8
P_BUILDING_MISC
 10
-6047946.1158832628279924
 20
-33611536.0556024089455605
 30
0.0
  0
VERTEX
  5
D9A
  8
P_BUILDING_MISC
 10
-6050031.4752797121182084
 20
-33610537.7597467079758644
 30
0.0
  0
VERTEX
  5
D9B
  8
P_BUILDING_MISC
 10
-6053125.5172361470758915
 20
-33609244.2447257190942764
 30
0.0
  0
VERTEX
  5
D9C
  8
P_BUILDING_MISC
 10
-6054429.8684407826513052
 20
-33608699.6054099723696709
 30
0.0
  0
SEQEND
  5
D9D
  8
P_BUILDING_MISC
  0
POLYLINE
  5
3A7
  8
P_BUILDING_MISC
 66
     1
 10
0.0
 20
0.0
 30
0.0
 70
     1
  0
VERTEX
  5
D9E
  8
P_BUILDING_MISC
 10
-5938474.0975641664117575
 20
-33605137.7428817898035049
 30
0.0
  0
VERTEX
  5
D9F
  8
P_BUILDING_MISC
 10
-5938648.545887753367424
 20
-33605107.4179280698299408
 30
0.0
  0
VERTEX
  5
DA0
  8
P_BUILDING_MISC
 10
-5938921.6472246143966913
 20
-33605137.4437851533293724
 30
0.0
  0
VERTEX
  5
DA1
  8
P_BUILDING_MISC
 10
-5939118.9128783671185374
 20
-33605197.7286930903792381
 30
0.0
  0
VERTEX
  5
DA2
  8
P_BUILDING_MISC
 10
-5939285.8159958934411407
 20
-33605227.82551608979702
 30
0.0
  0
VERTEX
  5
DA3
  8
P_BUILDING_MISC
 10
-5939505.8989879321306944
 20
-33605378.7202835604548454
 30
0.0
  0
VERTEX
  5
DA4
  8
P_BUILDING_MISC
 10
-5939634.9145534122362733
 20
-33605469.2591708078980446
 30
0.0
  0
VERTEX
  5
DA5
  8
P_BUILDING_MISC
 10
-5939801.8984431512653828
 20
-33605620.1894233375787735
 30
0.0
  0
VERTEX
  5
DA6
  8
P_BUILDING_MISC
 10
-5939953.7717417441308498
 20
-33605861.7548937499523163
 30
0.0
  0
VERTEX
  5
DA7
  8
P_BUILDING_MISC
 10
-5940052.4803027026355267
 20
-33606005.1786855608224869
 30
0.0
  0
VERTEX
  5
DA8
  8
P_BUILDING_MISC
 10
-5940098.1149883139878511
 20
-33606186.3984209075570107
 30
0.0
  0
VERTEX
  5
DA9
  8
P_BUILDING_MISC
 10
-5940120.9929119423031807
 20
-33606367.6333665773272514
 30
0.0
  0
VERTEX
  5
DAA
  8
P_BUILDING_MISC
 10
-5940151.5170046491548419
 20
-33606639.4883226305246353
 30
0.0
  0
VERTEX
  5
DAB
  8
P_BUILDING_MISC
 10
-5940121.2958068232983351
 20
-33606820.7587647065520287
 30
0.0
  0
VERTEX
  5
DAC
  8
P_BUILDING_MISC
 10
-5940075.9034315440803766
 20
-33607002.0393470004200935
 30
0.0
  0
VERTEX
  5
DAD
  8
P_BUILDING_MISC
 10
-5940053.2476275721564889
 20
-33607153.0963571667671204
 30
0.0
  0
VERTEX
  5
DAE
  8
P_BUILDING_MISC
 10
-5939878.9204215295612812
 20
-33607364.6714966371655464
 30
0.0
  0
VERTEX
  5
DAF
  8
P_BUILDING_MISC
 10
-5939803.1654854267835617
 20
-33607515.764000378549099
 30
0.0
  0
VERTEX
  5
DB0
  8
P_BUILDING_MISC
 10
-5939636.4238561764359474
 20
-33607727.3340655192732811
 30
0.0
  0
VERTEX
  5
DB1
  8
P_BUILDING_MISC
 10
-5939408.9571174336597323
 20
-33607878.5279664173722267
 30
0.0
  0
VERTEX
  5
DB2
  8
P_BUILDING_MISC
 10
-5939242.0943320170044899
 20
-33607908.8478663265705109
 30
0.0
  0
VERTEX
  5
DB3
  8
P_BUILDING_MISC
 10
-5939067.6610974660143256
 20
-33607961.8291008025407791
 30
0.0
  0
VERTEX
  5
DB4
  8
P_BUILDING_MISC
 10
-5938900.7983070304617286
 20
-33607992.148993618786335
 30
0.0
  0
VERTEX
  5
DB5
  8
P_BUILDING_MISC
 10
-5938430.491732519119978
 20
-33607992.4632963389158249
 30
0.0
  0
VERTEX
  5
DB6
  8
P_BUILDING_MISC
 10
-5938256.0029782559722662
 20
-33607962.3715264573693275
 30
0.0
  0
VERTEX
  5
DB7
  8
P_BUILDING_MISC
 10
-5938089.0846756659448147
 20
-33607909.6184149011969566
 30
0.0
  0
VERTEX
  5
DB8
  8
P_BUILDING_MISC
 10
-5937869.0016428828239441
 20
-33607758.7236099094152451
 30
0.0
  0
VERTEX
  5
DB9
  8
P_BUILDING_MISC
 10
-5937694.4725256580859423
 20
-33607668.2151100262999535
 30
0.0
  0
VERTEX
  5
DBA
  8
P_BUILDING_MISC
 10
-5937573.0021692365407944
 20
-33607517.2544092163443565
 30
0.0
  0
VERTEX
  5
DBB
  8
P_BUILDING_MISC
 10
-5937421.1490910751745105
 20
-33607305.8972581475973129
 30
0.0
  0
VERTEX
  5
DBC
  8
P_BUILDING_MISC
 10
-5937352.7576863253489137
 20
-33607124.6927139982581139
 30
0.0
  0
VERTEX
  5
DBD
  8
P_BUILDING_MISC
 10
-5937276.8008784828707576
 20
-33606973.7015975117683411
 30
0.0
  0
VERTEX
  5
DBE
  8
P_BUILDING_MISC
 10
-5937223.5806550625711679
 20
-33606792.486916683614254
 30
0.0
  0
VERTEX
  5
DBF
  8
P_BUILDING_MISC
 10
-5937223.3788236519321799
 20
-33606490.4033191204071045
 30
0.0
  0
VERTEX
  5
DC0
  8
P_BUILDING_MISC
 10
-5937276.2155621452257037
 20
-33606097.6591644883155823
 30
0.0
  0
VERTEX
  5
DC1
  8
P_BUILDING_MISC
 10
-5937351.9705267148092389
 20
-33605946.5666826814413071
 30
0.0
  0
VERTEX
  5
DC2
  8
P_BUILDING_MISC
 10
-5937450.4469315074384212
 20
-33605742.5943664312362671
 30
0.0
  0
VERTEX
  5
DC3
  8
P_BUILDING_MISC
 10
-5937571.715418353676796
 20
-33605591.4714717790484428
 30
0.0
  0
VERTEX
  5
DC4
  8
P_BUILDING_MISC
 10
-5937738.5176111720502377
 20
-33605470.5265246778726578
 30
0.0
  0
VERTEX
  5
DC5
  8
P_BUILDING_MISC
 10
-5937965.964130830951035
 20
-33605289.1243044510483742
 30
0.0
  0
VERTEX
  5
DC6
  8
P_BUILDING_MISC
 10
-5938087.2931609777733684
 20
-33605228.6264839097857475
 30
0.0
  0
VERTEX
  5
DC7
  8
P_BUILDING_MISC
 10
-5938284.4982507852837443
 20
-33605198.2863297685980797
 30
0.0
  0
VERTEX
  5
DC8
  8
P_BUILDING_MISC
 10
-5938474.0975641664117575
 20
-33605137.7428817898035049
 30
0.0
  0
SEQEND
  5
DC9
  8
P_BUILDING_MISC
  0
POLYLINE
  5
3D4
  8
P_WATER
 66
     1
 10
0.0
 20
0.0
 30
0.0
 70
     1
  0
VERTEX
  5
DCA
  8
P_WATER
 10
-6018317.8742979783564806
 20
-33534755.9639425799250603
 30
0.0
  0
VERTEX
  5
DCB
  8
P_WATER
 10
-6019054.2587262094020844
 20
-33535623.9317265897989273
 30
0.0
  0
VERTEX
  5
DCC
  8
P_WATER
 10
-6019373.7103295940905809
 20
-33536892.4316860884428024
 30
0.0
  0
VERTEX
  5
DCD
  8
P_WATER
 10
-6019222.7721745511516929
 20
-33538032.8682616800069809
 30
0.0
  0
VERTEX
  5
DCE
  8
P_WATER
 10
-6018707.5699152098968625
 20
-33538939.4431878700852394
 30
0.0
  0
VERTEX
  5
DCF
  8
P_WATER
 10
-6017995.0363203920423985
 20
-33539687.5621846616268158
 30
0.0
  0
VERTEX
  5
DD0
  8
P_WATER
 10
-6015936.2231693621724844
 20
-33535059.6519725695252419
 30
0.0
  0
VERTEX
  5
DD1
  8
P_WATER
 10
-6017157.1658635437488556
 20
-33534575.5047926194965839
 30
0.0
  0
VERTEX
  5
DD2
  8
P_WATER
 10
-6018317.8742979783564806
 20
-33534755.9639425799250603
 30
0.0
  0
SEQEND
  5
DD3
  8
P_WATER
  0
POLYLINE
  5
3DF
  8
P_WATER
 66
     1
 10
0.0
 20
0.0
 30
0.0
 70
     1
  0
VERTEX
  5
DD4
  8
P_WATER
 10
-6016273.6144919777289033
 20
-33529214.2660684399306774
 30
0.0
  0
VERTEX
  5
DD5
  8
P_WATER
 10
-6016395.1055723624303937
 20
-33529395.4290065690875053
 30
0.0
  0
VERTEX
  5
DD6
  8
P_WATER
 10
-6016448.3064960613846779
 20
-33529546.4306477606296539
 30
0.0
  0
VERTEX
  5
DD7
  8
P_WATER
 10
-6016471.1653281720355153
 20
-33529697.452833529561758
 30
0.0
  0
VERTEX
  5
DD8
  8
P_WATER
 10
-6016471.3084955951198936
 20
-33529908.9054619297385216
 30
0.0
  0
VERTEX
  5
DD9
  8
P_WATER
 10
-6016448.6541870608925819
 20
-33530059.9584627486765385
 30
0.0
  0
VERTEX
  5
DDA
  8
P_WATER
 10
-6016319.8639029432088137
 20
-33530301.7059188298881054
 30
0.0
  0
VERTEX
  5
DDB
  8
P_WATER
 10
-6016221.3543508788570762
 20
-33530452.8102764412760735
 30
0.0
  0
VERTEX
  5
DDC
  8
P_WATER
 10
-6016130.389419237151742
 20
-33530543.4944590516388416
 30
0.0
  0
VERTEX
  5
DDD
  8
P_WATER
 10
-6015955.9632716812193394
 20
-33530604.0276138484477997
 30
0.0
  0
VERTEX
  5
DDE
  8
P_WATER
 10
-6014333.1876106476411223
 20
-33531382.9700521491467953
 30
0.0
  0
VERTEX
  5
DDF
  8
P_WATER
 10
-6012737.7848861878737807
 20
-33527774.249607440084219
 30
0.0
  0
VERTEX
  5
DE0
  8
P_WATER
 10
-6013374.6825077487155795
 20
-33527350.9131762906908989
 30
0.0
  0
VERTEX
  5
DE1
  8
P_WATER
 10
-6014034.500183092430234
 20
-33527169.221448689699173
 30
0.0
  0
VERTEX
  5
DE2
  8
P_WATER
 10
-6014724.9666142286732793
 20
-33527440.6219107396900654
 30
0.0
  0
VERTEX
  5
DE3
  8
P_WATER
 10
-6016273.6144919777289033
 20
-33529214.2660684399306774
 30
0.0
  0
SEQEND
  5
DE4
  8
P_WATER
  0
POLYLINE
  5
3F1
  8
P_WATER
 66
     1
 10
0.0
 20
0.0
 30
0.0
 70
     1
  0
VERTEX
  5
DE5
  8
P_WATER
 10
-5984698.1116213388741016
 20
-33522469.10074457898736
 30
0.0
  0
VERTEX
  5
DE6
  8
P_WATER
 10
-5986192.2142687244340777
 20
-33522105.6039618887007236
 30
0.0
  0
VERTEX
  5
DE7
  8
P_WATER
 10
-5987739.4764746278524399
 20
-33521832.6937070488929749
 30
0.0
  0
VERTEX
  5
DE8
  8
P_WATER
 10
-5989286.7793039688840508
 20
-33521620.1982185989618301
 30
0.0
  0
VERTEX
  5
DE9
  8
P_WATER
 10
-5990834.1431583100929856
 20
-33521498.3250164017081261
 30
0.0
  0
VERTEX
  5
DEA
  8
P_WATER
 10
-5992404.3246292928233743
 20
-33521467.0587563216686249
 30
0.0
  0
VERTEX
  5
DEB
  8
P_WATER
 10
-5993951.790297550149262
 20
-33521496.2226053290069103
 30
0.0
  0
VERTEX
  5
DEC
  8
P_WATER
 10
-5969063.3043754072859883
 20
-33532198.8903666213154793
 30
0.0
  0
VERTEX
  5
DED
  8
P_WATER
 10
-5970094.1899786191061139
 20
-33531088.0710322298109531
 30
0.0
  0
VERTEX
  5
DEE
  8
P_WATER
 10
-5971200.9051814917474985
 20
-33529939.4412039406597614
 30
0.0
  0
VERTEX
  5
DEF
  8
P_WATER
 10
-5972353.2195166908204556
 20
-33528919.1626014299690723
 30
0.0
  0
VERTEX
  5
DF0
  8
P_WATER
 10
-5973581.3837282378226519
 20
-33527891.2809739001095295
 30
0.0
  0
VERTEX
  5
DF1
  8
P_WATER
 10
-5974809.6542878123000264
 20
-33527021.9886486083269119
 30
0.0
  0
VERTEX
  5
DF2
  8
P_WATER
 10
-5976136.5312873376533389
 20
-33526145.077950619161129
 30
0.0
  0
VERTEX
  5
DF3
  8
P_WATER
 10
-5977486.2255459986627102
 20
-33525358.7743037603795528
 30
0.0
  0
VERTEX
  5
DF4
  8
P_WATER
 10
-5978858.7218510033562779
 20
-33524640.4220561310648918
 30
0.0
  0
VERTEX
  5
DF5
  8
P_WATER
 10
-5980276.7462917566299438
 20
-33523944.694602869451046
 30
0.0
  0
VERTEX
  5
DF6
  8
P_WATER
 10
-5981725.2142540691420436
 20
-33523399.9840917810797691
 30
0.0
  0
VERTEX
  5
DF7
  8
P_WATER
 10
-5983204.0495310733094811
 20
-33522893.0123113393783569
 30
0.0
  0
VERTEX
  5
DF8
  8
P_WATER
 10
-5984698.1116213388741016
 20
-33522469.10074457898736
 30
0.0
  0
SEQEND
  5
DF9
  8
P_WATER
  0
POLYLINE
  5
407
  8
P_WATER
 66
     1
 10
0.0
 20
0.0
 30
0.0
 70
     1
  0
VERTEX
  5
DFA
  8
P_WATER
 10
-5949166.8720111390575767
 20
-33578131.8564843162894249
 30
0.0
  0
VERTEX
  5
DFB
  8
P_WATER
 10
-5950237.5948365265503526
 20
-33568532.4284795299172401
 30
0.0
  0
VERTEX
  5
DFC
  8
P_WATER
 10
-5951929.2345806220546365
 20
-33568621.9207154810428619
 30
0.0
  0
VERTEX
  5
DFD
  8
P_WATER
 10
-5952307.295692402869463
 20
-33578129.7534741908311844
 30
0.0
  0
VERTEX
  5
DFE
  8
P_WATER
 10
-5952376.4156349068507552
 20
-33579398.458909697830677
 30
0.0
  0
VERTEX
  5
DFF
  8
P_WATER
 10
-5948993.3343030326068401
 20
-33579521.5578944310545921
 30
0.0
  0
VERTEX
  5
E00
  8
P_WATER
 10
-5949166.8720111390575767
 20
-33578131.8564843162894249
 30
0.0
  0
SEQEND
  5
E01
  8
P_WATER
  0
POLYLINE
  5
410
  8
L_ROAD_PREFECTURAL
 66
     1
 10
0.0
 20
0.0
 30
0.0
  0
VERTEX
  5
E02
  8
L_ROAD_PREFECTURAL
 10
-5906543.974696172401309
 20
-33612982.9921174570918083
 30
0.0
  0
VERTEX
  5
E03
  8
L_ROAD_PREFECTURAL
 10
-5918117.7282794388011098
 20
-33632958.1301104500889778
 30
0.0
  0
VERTEX
  5
E04
  8
L_ROAD_PREFECTURAL
 10
-5924831.0520223565399647
 20
-33644417.7337372675538063
 30
0.0
  0
VERTEX
  5
E05
  8
L_ROAD_PREFECTURAL
 10
-5927238.5046549877151847
 20
-33648630.19610495865345
 30
0.0
  0
SEQEND
  5
E06
  8
L_ROAD_PREFECTURAL
  0
POLYLINE
  5
416
  8
L_ROAD_PREFECTURAL
 66
     1
 10
0.0
 20
0.0
 30
0.0
  0
VERTEX
  5
E07
  8
L_ROAD_PREFECTURAL
 10
-5943287.3924114489927888
 20
-33633847.5832574293017387
 30
0.0
  0
VERTEX
  5
E08
  8
L_ROAD_PREFECTURAL
 10
-5918119.1507900459691882
 20
-33589533.5930832475423813
 30
0.0
  0
VERTEX
  5
E09
  8
L_ROAD_PREFECTURAL
 10
-5916767.1938393907621503
 20
-33586944.1252957507967949
 30
0.0
  0
SEQEND
  5
E0A
  8
L_ROAD_PREFECTURAL
  0
POLYLINE
  5
41B
  8
L_ROAD_GENERAL
 66
     1
 10
0.0
 20
0.0
 30
0.0
  0
VERTEX
  5
E0B
  8
L_ROAD_GENERAL
 10
-6028810.2522833915427327
 20
-33514736.3611807711422443
 30
0.0
  0
VERTEX
  5
E0C
  8
L_ROAD_GENERAL
 10
-6027822.7066644821316004
 20
-33512630.0556964911520481
 30
0.0
  0
VERTEX
  5
E0D
  8
L_ROAD_GENERAL
 10
-6015069.0933530572801828
 20
-33486720.634034838527441
 30
0.0
  0
SEQEND
  5
E0E
  8
L_ROAD_GENERAL
  0
POLYLINE
  5
420
  8
L_ROAD_GENERAL
 66
     1
 10
0.0
 20
0.0
 30
0.0
  0
VERTEX
  5
E0F
  8
L_ROAD_GENERAL
 10
-6006555.252680292353034
 20
-33493621.262775219976902
 30
0.0
  0
VERTEX
  5
E10
  8
L_ROAD_GENERAL
 10
-6007556.8848540913313627
 20
-33494134.1137331016361713
 30
0.0
  0
VERTEX
  5
E11
  8
L_ROAD_GENERAL
 10
-6008171.8969765091314912
 20
-33495002.1645188592374325
 30
0.0
  0
VERTEX
  5
E12
  8
L_ROAD_GENERAL
 10
-6014636.1995298834517598
 20
-33508364.6250025890767574
 30
0.0
  0
VERTEX
  5
E13
  8
L_ROAD_GENERAL
 10
-6017437.6748879114165902
 20
-33511942.3210270591080189
 30
0.0
  0
VERTEX
  5
E14
  8
L_ROAD_GENERAL
 10
-6017787.0787684628739953
 20
-33512636.8576730005443096
 30
0.0
  0
VERTEX
  5
E15
  8
L_ROAD_GENERAL
 10
-6020711.5162323610857129
 20
-33518563.1050575897097588
 30
0.0
  0
SEQEND
  5
E16
  8
L_ROAD_GENERAL
  0
POLYLINE
  5
429
  8
L_ROAD_GENERAL
 66
     1
 10
0.0
 20
0.0
 30
0.0
  0
VERTEX
  5
E17
  8
L_ROAD_GENERAL
 10
-6030648.8825378734618425
 20
-33519062.3426572903990746
 30
0.0
  0
VERTEX
  5
E18
  8
L_ROAD_GENERAL
 10
-6045079.7387839797884226
 20
-33512618.332676600664854
 30
0.0
  0
VERTEX
  5
E19
  8
L_ROAD_GENERAL
 10
-6078825.0180575372651219
 20
-33497635.030899029225111
 30
0.0
  0
SEQEND
  5
E1A
  8
L_ROAD_GENERAL
  0
POLYLINE
  5
42E
  8
L_ROAD_GENERAL
 66
     1
 10
0.0
 20
0.0
 30
0.0
  0
VERTEX
  5
E1B
  8
L_ROAD_GENERAL
 10
-6076834.4678042521700263
 20
-33493029.7434136308729649
 30
0.0
  0
VERTEX
  5
E1C
  8
L_ROAD_GENERAL
 10
-6033496.6671156398952007
 20
-33512626.2049681916832924
 30
0.0
  0
VERTEX
  5
E1D
  8
L_ROAD_GENERAL
 10
-6028810.2522833915427327
 20
-33514736.3611807711422443
 30
0.0
  0
SEQEND
  5
E1E
  8
L_ROAD_GENERAL
  0
POLYLINE
  5
433
  8
L_ROAD_GENERAL
 66
     1
 10
0.0
 20
0.0
 30
0.0
  0
VERTEX
  5
E1F
  8
L_ROAD_GENERAL
 10
-5915344.6501199016347528
 20
-33523897.5337035581469536
 30
0.0
  0
VERTEX
  5
E20
  8
L_ROAD_GENERAL
 10
-5945337.8861918626353145
 20
-33512685.6262330189347267
 30
0.0
  0
VERTEX
  5
E21
  8
L_ROAD_GENERAL
 10
-5962052.166898294351995
 20
-33506444.1239209696650505
 30
0.0
  0
SEQEND
  5
E22
  8
L_ROAD_GENERAL
  0
POLYLINE
  5
438
  8
L_ROAD_GENERAL
 66
     1
 10
0.0
 20
0.0
 30
0.0
  0
VERTEX
  5
E23
  8
L_ROAD_GENERAL
 10
-5957917.7643255963921547
 20
-33494681.0627252906560898
 30
0.0
  0
VERTEX
  5
E24
  8
L_ROAD_GENERAL
 10
-5952229.9950558291748166
 20
-33496701.2273226082324982
 30
0.0
  0
VERTEX
  5
E25
  8
L_ROAD_GENERAL
 10
-5951001.4837307035923004
 20
-33497208.0263320915400982
 30
0.0
  0
VERTEX
  5
E26
  8
L_ROAD_GENERAL
 10
-5949621.2471817629411817
 20
-33497692.2711116001009941
 30
0.0
  0
VERTEX
  5
E27
  8
L_ROAD_GENERAL
 10
-5948817.3868563706055284
 20
-33497994.8846330307424068
 30
0.0
  0
VERTEX
  5
E28
  8
L_ROAD_GENERAL
 10
-5932497.4177108751609921
 20
-33504024.6461717411875725
 30
0.0
  0
VERTEX
  5
E29
  8
L_ROAD_GENERAL
 10
-5930821.4251840254291892
 20
-33504629.9156002700328827
 30
0.0
  0
VERTEX
  5
E2A
  8
L_ROAD_GENERAL
 10
-5924564.9270272124558687
 20
-33506944.965449620038271
 30
0.0
  0
VERTEX
  5
E2B
  8
L_ROAD_GENERAL
 10
-5923609.3750704620033503
 20
-33507277.8853530511260033
 30
0.0
  0
VERTEX
  5
E2C
  8
L_ROAD_GENERAL
 10
-5920348.4335415819659829
 20
-33508518.5674054883420467
 30
0.0
  0
VERTEX
  5
E2D
  8
L_ROAD_GENERAL
 10
-5918134.0042505133897066
 20
-33509328.0939982384443283
 30
0.0
  0
VERTEX
  5
E2E
  8
L_ROAD_GENERAL
 10
-5917299.7997803259640932
 20
-33509630.7248684912919998
 30
0.0
  0
VERTEX
  5
E2F
  8
L_ROAD_GENERAL
 10
-5914402.8402138510718942
 20
-33510689.9171500094234943
 30
0.0
  0
VERTEX
  5
E30
  8
L_ROAD_GENERAL
 10
-5913689.9784742603078485
 20
-33510954.7075001485645771
 30
0.0
  0
VERTEX
  5
E31
  8
L_ROAD_GENERAL
 10
-5912613.0977665241807699
 20
-33511348.1220248490571976
 30
0.0
  0
VERTEX
  5
E32
  8
L_ROAD_GENERAL
 10
-5909003.3001720430329442
 20
-33512709.8621465489268303
 30
0.0
  0
VERTEX
  5
E33
  8
L_ROAD_GENERAL
 10
-5908025.0055555906146765
 20
-33513065.4511405415832996
 30
0.0
  0
SEQEND
  5
E34
  8
L_ROAD_GENERAL
  0
POLYLINE
  5
44B
  8
L_ROAD_GENERAL
 66
     1
 10
0.0
 20
0.0
 30
0.0
  0
VERTEX
  5
E35
  8
L_ROAD_GENERAL
 10
-6056401.8184353979304433
 20
-33563733.0954906865954399
 30
0.0
  0
VERTEX
  5
E36
  8
L_ROAD_GENERAL
 10
-6045547.7785898288711905
 20
-33542742.4761564806103706
 30
0.0
  0
VERTEX
  5
E37
  8
L_ROAD_GENERAL
 10
-6043234.8634107289835811
 20
-33543733.3460832796990871
 30
0.0
  0
VERTEX
  5
E38
  8
L_ROAD_GENERAL
 10
-6039110.4569846959784627
 20
-33535700.9465136006474495
 30
0.0
  0
VERTEX
  5
E39
  8
L_ROAD_GENERAL
 10
-6036846.9220674699172378
 20
-33531216.666007649153471
 30
0.0
  0
VERTEX
  5
E3A
  8
L_ROAD_GENERAL
 10
-6035320.2107616849243641
 20
-33528242.2611148692667484
 30
0.0
  0
VERTEX
  5
E3B
  8
L_ROAD_GENERAL
 10
-6033033.902585182338953
 20
-33523727.7875289395451546
 30
0.0
  0
VERTEX
  5
E3C
  8
L_ROAD_GENERAL
 10
-6030648.8825378734618425
 20
-33519062.3426572903990746
 30
0.0
  0
SEQEND
  5
E3D
  8
L_ROAD_GENERAL
  0
POLYLINE
  5
455
  8
L_ROAD_GENERAL
 66
     1
 10
0.0
 20
0.0
 30
0.0
  0
VERTEX
  5
E3E
  8
L_ROAD_GENERAL
 10
-6022876.3461679751053452
 20
-33522926.6265102103352547
 30
0.0
  0
VERTEX
  5
E3F
  8
L_ROAD_GENERAL
 10
-6027152.9290970368310809
 20
-33531676.3594046197831631
 30
0.0
  0
VERTEX
  5
E40
  8
L_ROAD_GENERAL
 10
-6029120.1932145962491632
 20
-33535526.4852141290903091
 30
0.0
  0
VERTEX
  5
E41
  8
L_ROAD_GENERAL
 10
-6035333.7414132347330451
 20
-33548164.1193205788731575
 30
0.0
  0
VERTEX
  5
E42
  8
L_ROAD_GENERAL
 10
-6043032.282557169906795
 20
-33563742.1974686682224274
 30
0.0
  0
SEQEND
  5
E43
  8
L_ROAD_GENERAL
  0
POLYLINE
  5
45C
  8
L_ROAD_GENERAL
 66
     1
 10
0.0
 20
0.0
 30
0.0
  0
VERTEX
  5
E44
  8
L_ROAD_GENERAL
 10
-6003329.9784220438450575
 20
-33480264.1603546999394894
 30
0.0
  0
VERTEX
  5
E45
  8
L_ROAD_GENERAL
 10
-5995669.7789567010477185
 20
-33481953.4023123197257519
 30
0.0
  0
VERTEX
  5
E46
  8
L_ROAD_GENERAL
 10
-5992135.448317757807672
 20
-33482703.4228235818445683
 30
0.0
  0
VERTEX
  5
E47
  8
L_ROAD_GENERAL
 10
-5986932.5803525932133198
 20
-33483854.8160929717123508
 30
0.0
  0
VERTEX
  5
E48
  8
L_ROAD_GENERAL
 10
-5984134.2029829462990165
 20
-33484845.9978093691170216
 30
0.0
  0
VERTEX
  5
E49
  8
L_ROAD_GENERAL
 10
-5981062.8542467020452023
 20
-33485995.9519346691668034
 30
0.0
  0
VERTEX
  5
E4A
  8
L_ROAD_GENERAL
 10
-5978438.9214227441698313
 20
-33486956.8068980202078819
 30
0.0
  0
VERTEX
  5
E4B
  8
L_ROAD_GENERAL
 10
-5974662.2630529729649425
 20
-33488318.6860433183610439
 30
0.0
  0
VERTEX
  5
E4C
  8
L_ROAD_GENERAL
 10
-5970339.6259112628176808
 20
-33489945.2463494911789894
 30
0.0
  0
VERTEX
  5
E4D
  8
L_ROAD_GENERAL
 10
-5970021.0962471878156066
 20
-33490036.0829596295952797
 30
0.0
  0
VERTEX
  5
E4E
  8
L_ROAD_GENERAL
 10
-5969133.796921793371439
 20
-33490338.7543843984603882
 30
0.0
  0
SEQEND
  5
E4F
  8
L_ROAD_GENERAL
  0
POLYLINE
  5
469
  8
L_ROAD_GENERAL
 66
     1
 10
0.0
 20
0.0
 30
0.0
  0
VERTEX
  5
E50
  8
L_ROAD_GENERAL
 10
-5974618.2078573182225227
 20
-33501768.6200051717460155
 30
0.0
  0
VERTEX
  5
E51
  8
L_ROAD_GENERAL
 10
-5995040.8013474820181727
 20
-33494112.3591460511088371
 30
0.0
  0
VERTEX
  5
E52
  8
L_ROAD_GENERAL
 10
-5998893.640281593427062
 20
-33493233.7404629401862621
 30
0.0
  0
VERTEX
  5
E53
  8
L_ROAD_GENERAL
 10
-6000243.6130905225872993
 20
-33492870.3385925106704235
 30
0.0
  0
VERTEX
  5
E54
  8
L_ROAD_GENERAL
 10
-6001373.8309559533372521
 20
-33492839.3678091689944267
 30
0.0
  0
VERTEX
  5
E55
  8
L_ROAD_GENERAL
 10
-6002989.6223147995769978
 20
-33492959.1065325699746609
 30
0.0
  0
VERTEX
  5
E56
  8
L_ROAD_GENERAL
 10
-6004886.1789867775514722
 20
-33493229.692902609705925
 30
0.0
  0
VERTEX
  5
E57
  8
L_ROAD_GENERAL
 10
-6006555.252680292353034
 20
-33493621.262775219976902
 30
0.0
  0
SEQEND
  5
E58
  8
L_ROAD_GENERAL
  0
POLYLINE
  5
473
  8
L_ROAD_GENERAL
 66
     1
 10
0.0
 20
0.0
 30
0.0
  0
VERTEX
  5
E59
  8
L_ROAD_GENERAL
 10
-5957020.7352342577651143
 20
-33469156.2978196404874325
 30
0.0
  0
VERTEX
  5
E5A
  8
L_ROAD_GENERAL
 10
-5943718.2831796472892165
 20
-33438829.2883944287896156
 30
0.0
  0
SEQEND
  5
E5B
  8
L_ROAD_GENERAL
  0
POLYLINE
  5
477
  8
L_ROAD_GENERAL
 66
     1
 10
0.0
 20
0.0
 30
0.0
  0
VERTEX
  5
E5C
  8
L_ROAD_GENERAL
 10
-5936431.9494447987526655
 20
-33443742.8837952502071857
 30
0.0
  0
VERTEX
  5
E5D
  8
L_ROAD_GENERAL
 10
-5950120.9599950173869729
 20
-33473646.7395532093942165
 30
0.0
  0
VERTEX
  5
E5E
  8
L_ROAD_GENERAL
 10
-5954595.3786646658554673
 20
-33483453.6390409283339977
 30
0.0
  0
VERTEX
  5
E5F
  8
L_ROAD_GENERAL
 10
-5958142.9644122822210193
 20
-33491154.1821811906993389
 30
0.0
  0
VERTEX
  5
E60
  8
L_ROAD_GENERAL
 10
-5958826.6511175809428096
 20
-33492633.8928839415311813
 30
0.0
  0
VERTEX
  5
E61
  8
L_ROAD_GENERAL
 10
-5957917.7643255963921547
 20
-33494681.0627252906560898
 30
0.0
  0
SEQEND
  5
E62
  8
L_ROAD_GENERAL
  0
POLYLINE
  5
47F
  8
L_ROAD_GENERAL
 66
     1
 10
0.0
 20
0.0
 30
0.0
  0
VERTEX
  5
E63
  8
L_ROAD_GENERAL
 10
-5969133.796921793371439
 20
-33490338.7543843984603882
 30
0.0
  0
VERTEX
  5
E64
  8
L_ROAD_GENERAL
 10
-5966015.4914491791278124
 20
-33489343.999936580657959
 30
0.0
  0
VERTEX
  5
E65
  8
L_ROAD_GENERAL
 10
-5957020.7352342577651143
 20
-33469156.2978196404874325
 30
0.0
  0
SEQEND
  5
E66
  8
L_ROAD_GENERAL
  0
POLYLINE
  5
484
  8
L_ROAD_GENERAL
 66
     1
 10
0.0
 20
0.0
 30
0.0
  0
VERTEX
  5
E67
  8
L_ROAD_GENERAL
 10
-6020711.5162323610857129
 20
-33518563.1050575897097588
 30
0.0
  0
VERTEX
  5
E68
  8
L_ROAD_GENERAL
 10
-6022876.3461679751053452
 20
-33522926.6265102103352547
 30
0.0
  0
SEQEND
  5
E69
  8
L_ROAD_GENERAL
  0
POLYLINE
  5
488
  8
L_ROAD_GENERAL
 66
     1
 10
0.0
 20
0.0
 30
0.0
  0
VERTEX
  5
E6A
  8
L_ROAD_GENERAL
 10
-5962052.166898294351995
 20
-33506444.1239209696650505
 30
0.0
  0
VERTEX
  5
E6B
  8
L_ROAD_GENERAL
 10
-5974618.2078573182225227
 20
-33501768.6200051717460155
 30
0.0
  0
SEQEND
  5
E6C
  8
L_ROAD_GENERAL
  0
POLYLINE
  5
48C
  8
L_ROAD_GENERAL
 66
     1
 10
0.0
 20
0.0
 30
0.0
  0
VERTEX
  5
E6D
  8
L_ROAD_GENERAL
 10
-6050665.2530377367511392
 20
-33638948.3032324314117432
 30
0.0
  0
VERTEX
  5
E6E
  8
L_ROAD_GENERAL
 10
-6039229.8644012622535229
 20
-33644431.34960076212883
 30
0.0
  0
VERTEX
  5
E6F
  8
L_ROAD_GENERAL
 10
-6036727.4918338730931282
 20
-33645732.0098692402243614
 30
0.0
  0
SEQEND
  5
E70
  8
L_ROAD_GENERAL
  0
POLYLINE
  5
491
  8
L_ROAD_GENERAL
 66
     1
 10
0.0
 20
0.0
 30
0.0
  0
VERTEX
  5
E71
  8
L_ROAD_GENERAL
 10
-6038231.7542397053912282
 20
-33649129.4297257512807846
 30
0.0
  0
VERTEX
  5
E72
  8
L_ROAD_GENERAL
 10
-6048044.3561716303229332
 20
-33644425.3548872098326683
 30
0.0
  0
VERTEX
  5
E73
  8
L_ROAD_GENERAL
 10
-6053936.3155473824590445
 20
-33641385.4014788195490837
 30
0.0
  0
VERTEX
  5
E74
  8
L_ROAD_GENERAL
 10
-6038324.5356417652219534
 20
-33607056.655231311917305
 30
0.0
  0
SEQEND
  5
E75
  8
L_ROAD_GENERAL
  0
POLYLINE
  5
497
  8
L_ROAD_GENERAL
 66
     1
 10
0.0
 20
0.0
 30
0.0
  0
VERTEX
  5
E76
  8
L_ROAD_GENERAL
 10
-6036625.8972003655508161
 20
-33607843.2270294427871704
 30
0.0
  0
VERTEX
  5
E77
  8
L_ROAD_GENERAL
 10
-6050665.2530377367511392
 20
-33638948.3032324314117432
 30
0.0
  0
SEQEND
  5
E78
  8
L_ROAD_GENERAL
  0
POLYLINE
  5
49B
  8
L_ROAD_GENERAL
 66
     1
 10
0.0
 20
0.0
 30
0.0
  0
VERTEX
  5
E79
  8
L_ROAD_GENERAL
 10
-6001006.6292402250692248
 20
-33611809.5451530590653419
 30
0.0
  0
VERTEX
  5
E7A
  8
L_ROAD_GENERAL
 10
-5993499.1025482621043921
 20
-33615092.2203773185610771
 30
0.0
  0
VERTEX
  5
E7B
  8
L_ROAD_GENERAL
 10
-5991557.7602557800710201
 20
-33615939.3639777675271034
 30
0.0
  0
SEQEND
  5
E7C
  8
L_ROAD_GENERAL
  0
POLYLINE
  5
4A0
  8
L_ROAD_GENERAL
 66
     1
 10
0.0
 20
0.0
 30
0.0
  0
VERTEX
  5
E7D
  8
L_ROAD_GENERAL
 10
-5996184.110136860050261
 20
-33625897.4544858112931252
 30
0.0
  0
VERTEX
  5
E7E
  8
L_ROAD_GENERAL
 10
-5998125.5765040041878819
 20
-33625231.5600443184375763
 30
0.0
  0
VERTEX
  5
E7F
  8
L_ROAD_GENERAL
 10
-6013928.7839938923716545
 20
-33617547.9523710384964943
 30
0.0
  0
SEQEND
  5
E80
  8
L_ROAD_GENERAL
  0
POLYLINE
  5
4A5
  8
L_ROAD_GENERAL
 66
     1
 10
0.0
 20
0.0
 30
0.0
  0
VERTEX
  5
E81
  8
L_ROAD_GENERAL
 10
-6010364.4828121773898602
 20
-33607709.9861715734004974
 30
0.0
  0
VERTEX
  5
E82
  8
L_ROAD_GENERAL
 10
-6004866.5530775608494878
 20
-33610115.2687622234225273
 30
0.0
  0
VERTEX
  5
E83
  8
L_ROAD_GENERAL
 10
-6001006.6292402250692248
 20
-33611809.5451530590653419
 30
0.0
  0
SEQEND
  5
E84
  8
L_ROAD_GENERAL
  0
POLYLINE
  5
4AA
  8
L_ROAD_GENERAL
 66
     1
 10
0.0
 20
0.0
 30
0.0
  0
VERTEX
  5
E85
  8
L_ROAD_GENERAL
 10
-6026979.6081699952483177
 20
-33600471.3793344423174858
 30
0.0
  0
VERTEX
  5
E86
  8
L_ROAD_GENERAL
 10
-6018827.4894567215815187
 20
-33603996.180201530456543
 30
0.0
  0
SEQEND
  5
E87
  8
L_ROAD_GENERAL
  0
POLYLINE
  5
4AE
  8
L_ROAD_GENERAL
 66
     1
 10
0.0
 20
0.0
 30
0.0
  0
VERTEX
  5
E88
  8
L_ROAD_GENERAL
 10
-6022839.2309135962277651
 20
-33613660.1416809409856796
 30
0.0
  0
VERTEX
  5
E89
  8
L_ROAD_GENERAL
 10
-6036625.8972003655508161
 20
-33607843.2270294427871704
 30
0.0
  0
SEQEND
  5
E8A
  8
L_ROAD_GENERAL
  0
POLYLINE
  5
4B2
  8
L_ROAD_GENERAL
 66
     1
 10
0.0
 20
0.0
 30
0.0
  0
VERTEX
  5
E8B
  8
L_ROAD_GENERAL
 10
-6032985.5907424166798592
 20
-33597816.5190107300877571
 30
0.0
  0
VERTEX
  5
E8C
  8
L_ROAD_GENERAL
 10
-6031218.683361578732729
 20
-33598603.1361353397369385
 30
0.0
  0
VERTEX
  5
E8D
  8
L_ROAD_GENERAL
 10
-6029065.013429032638669
 20
-33599541.057194210588932
 30
0.0
  0
VERTEX
  5
E8E
  8
L_ROAD_GENERAL
 10
-6026979.6081699952483177
 20
-33600471.3793344423174858
 30
0.0
  0
SEQEND
  5
E8F
  8
L_ROAD_GENERAL
  0
POLYLINE
  5
4B8
  8
L_ROAD_GENERAL
 66
     1
 10
0.0
 20
0.0
 30
0.0
  0
VERTEX
  5
E90
  8
L_ROAD_GENERAL
 10
-6052990.412795121781528
 20
-33589080.2468550801277161
 30
0.0
  0
VERTEX
  5
E91
  8
L_ROAD_GENERAL
 10
-6049752.3341847229748964
 20
-33590494.6934447512030602
 30
0.0
  0
VERTEX
  5
E92
  8
L_ROAD_GENERAL
 10
-6047318.0635288404300809
 20
-33591523.4350983202457428
 30
0.0
  0
VERTEX
  5
E93
  8
L_ROAD_GENERAL
 10
-6041774.6813852628692985
 20
-33593989.1882994994521141
 30
0.0
  0
VERTEX
  5
E94
  8
L_ROAD_GENERAL
 10
-6039150.8514946512877941
 20
-33595138.8900842815637589
 30
0.0
  0
VERTEX
  5
E95
  8
L_ROAD_GENERAL
 10
-6036845.5280750766396523
 20
-33596159.989128477871418
 30
0.0
  0
VERTEX
  5
E96
  8
L_ROAD_GENERAL
 10
-6034145.8411016827449203
 20
-33597309.7409593388438225
 30
0.0
  0
SEQEND
  5
E97
  8
L_ROAD_GENERAL
  0
POLYLINE
  5
4C1
  8
L_ROAD_GENERAL
 66
     1
 10
0.0
 20
0.0
 30
0.0
  0
VERTEX
  5
E98
  8
L_ROAD_GENERAL
 10
-6038324.5356417652219534
 20
-33607056.655231311917305
 30
0.0
  0
VERTEX
  5
E99
  8
L_ROAD_GENERAL
 10
-6060240.5484810005873442
 20
-33597745.1089143306016922
 30
0.0
  0
SEQEND
  5
E9A
  8
L_ROAD_GENERAL
  0
POLYLINE
  5
4C5
  8
L_ROAD_GENERAL
 66
     1
 10
0.0
 20
0.0
 30
0.0
  0
VERTEX
  5
E9B
  8
L_ROAD_GENERAL
 10
-6054293.4284070720896125
 20
-33586579.6161720976233482
 30
0.0
  0
VERTEX
  5
E9C
  8
L_ROAD_GENERAL
 10
-6054194.9188786186277866
 20
-33586730.7251622080802917
 30
0.0
  0
VERTEX
  5
E9D
  8
L_ROAD_GENERAL
 10
-6052990.412795121781528
 20
-33589080.2468550801277161
 30
0.0
  0
SEQEND
  5
E9E
  8
L_ROAD_GENERAL
  0
POLYLINE
  5
4CA
  8
L_ROAD_GENERAL
 66
     1
 10
0.0
 20
0.0
 30
0.0
  0
VERTEX
  5
E9F
  8
L_ROAD_GENERAL
 10
-6036134.9309765230864286
 20
-33644433.4523828774690628
 30
0.0
  0
VERTEX
  5
EA0
  8
L_ROAD_GENERAL
 10
-6022126.7121435459703207
 20
-33614438.4901895225048065
 30
0.0
  0
VERTEX
  5
EA1
  8
L_ROAD_GENERAL
 10
-6022839.2309135962277651
 20
-33613660.1416809409856796
 30
0.0
  0
SEQEND
  5
EA2
  8
L_ROAD_GENERAL
  0
POLYLINE
  5
4CF
  8
L_ROAD_GENERAL
 66
     1
 10
0.0
 20
0.0
 30
0.0
  0
VERTEX
  5
EA3
  8
L_ROAD_GENERAL
 10
-6013928.7839938923716545
 20
-33617547.9523710384964943
 30
0.0
  0
VERTEX
  5
EA4
  8
L_ROAD_GENERAL
 10
-6015158.1160867093130946
 20
-33618234.3608145788311958
 30
0.0
  0
VERTEX
  5
EA5
  8
L_ROAD_GENERAL
 10
-6027032.1856109425425529
 20
-33644439.6307893693447113
 30
0.0
  0
VERTEX
  5
EA6
  8
L_ROAD_GENERAL
 10
-6027328.4346187617629766
 20
-33645043.5973031669855118
 30
0.0
  0
VERTEX
  5
EA7
  8
L_ROAD_GENERAL
 10
-6028999.8229942508041859
 20
-33648803.4058273509144783
 30
0.0
  0
VERTEX
  5
EA8
  8
L_ROAD_GENERAL
 10
-6027991.6520868828520179
 20
-33649861.382780909538269
 30
0.0
  0
SEQEND
  5
EA9
  8
L_ROAD_GENERAL
  0
POLYLINE
  5
4D7
  8
L_ROAD_GENERAL
 66
     1
 10
0.0
 20
0.0
 30
0.0
  0
VERTEX
  5
EAA
  8
L_ROAD_GENERAL
 10
-6036727.4918338730931282
 20
-33645732.0098692402243614
 30
0.0
  0
VERTEX
  5
EAB
  8
L_ROAD_GENERAL
 10
-6036134.9309765230864286
 20
-33644433.4523828774690628
 30
0.0
  0
SEQEND
  5
EAC
  8
L_ROAD_GENERAL
  0
POLYLINE
  5
4DB
  8
L_ROAD_GENERAL
 66
     1
 10
0.0
 20
0.0
 30
0.0
  0
VERTEX
  5
EAD
  8
L_ROAD_GENERAL
 10
-6050107.9784478126093745
 20
-33578063.70498938113451
 30
0.0
  0
VERTEX
  5
EAE
  8
L_ROAD_GENERAL
 10
-6054293.4284070720896125
 20
-33586579.6161720976233482
 30
0.0
  0
SEQEND
  5
EAF
  8
L_ROAD_GENERAL
  0
POLYLINE
  5
4DF
  8
L_ROAD_GENERAL
 66
     1
 10
0.0
 20
0.0
 30
0.0
  0
VERTEX
  5
EB0
  8
L_ROAD_GENERAL
 10
-6066344.4169851075857878
 20
-33582931.2883430793881416
 30
0.0
  0
VERTEX
  5
EB1
  8
L_ROAD_GENERAL
 10
-6063807.5079451370984316
 20
-33578054.3672337383031845
 30
0.0
  0
SEQEND
  5
EB2
  8
L_ROAD_GENERAL
  0
POLYLINE
  5
4E3
  8
L_ROAD_GENERAL
 66
     1
 10
0.0
 20
0.0
 30
0.0
  0
VERTEX
  5
EB3
  8
L_ROAD_GENERAL
 10
-6043032.2851250572130084
 20
-33563745.9735134392976761
 30
0.0
  0
VERTEX
  5
EB4
  8
L_ROAD_GENERAL
 10
-6050107.9784478126093745
 20
-33578063.70498938113451
 30
0.0
  0
SEQEND
  5
EB5
  8
L_ROAD_GENERAL
  0
POLYLINE
  5
4E7
  8
L_ROAD_GENERAL
 66
     1
 10
0.0
 20
0.0
 30
0.0
  0
VERTEX
  5
EB6
  8
L_ROAD_GENERAL
 10
-6063807.5079451370984316
 20
-33578054.3672337383031845
 30
0.0
  0
VERTEX
  5
EB7
  8
L_ROAD_GENERAL
 10
-6056401.8210089718922973
 20
-33563736.8715354576706886
 30
0.0
  0
SEQEND
  5
EB8
  8
L_ROAD_GENERAL
  0
POLYLINE
  5
4EB
  8
L_ROAD_GENERAL
 66
     1
 10
0.0
 20
0.0
 30
0.0
  0
VERTEX
  5
EB9
  8
L_ROAD_GENERAL
 10
-6034145.8411016827449203
 20
-33597309.7409593388438225
 30
0.0
  0
VERTEX
  5
EBA
  8
L_ROAD_GENERAL
 10
-6032985.5907424166798592
 20
-33597816.5190107300877571
 30
0.0
  0
SEQEND
  5
EBB
  8
L_ROAD_GENERAL
  0
POLYLINE
  5
4EF
  8
L_ROAD_GENERAL
 66
     1
 10
0.0
 20
0.0
 30
0.0
  0
VERTEX
  5
EBC
  8
L_ROAD_GENERAL
 10
-6018827.4894567215815187
 20
-33603996.180201530456543
 30
0.0
  0
VERTEX
  5
EBD
  8
L_ROAD_GENERAL
 10
-6013769.3904480254277587
 20
-33606197.2638839483261108
 30
0.0
  0
VERTEX
  5
EBE
  8
L_ROAD_GENERAL
 10
-6011342.7378018833696842
 20
-33607286.4072335213422775
 30
0.0
  0
VERTEX
  5
EBF
  8
L_ROAD_GENERAL
 10
-6010364.4828121773898602
 20
-33607709.9861715734004974
 30
0.0
  0
SEQEND
  5
EC0
  8
L_ROAD_GENERAL
  0
POLYLINE
  5
4F5
  8
L_AISLE_MISC
 66
     1
 10
0.0
 20
0.0
 30
0.0
  0
VERTEX
  5
EC1
  8
L_AISLE_MISC
 10
-5951313.8266277555376291
 20
-33521857.1639133393764496
 30
0.0
  0
VERTEX
  5
EC2
  8
L_AISLE_MISC
 10
-5948538.3314318060874939
 20
-33523059.7717307396233082
 30
0.0
  0
VERTEX
  5
EC3
  8
L_AISLE_MISC
 10
-5947112.678705845028162
 20
-33523695.0841563083231449
 30
0.0
  0
VERTEX
  5
EC4
  8
L_AISLE_MISC
 10
-5948540.9147403826937079
 20
-33526918.7822252102196217
 30
0.0
  0
VERTEX
  5
EC5
  8
L_AISLE_MISC
 10
-5949056.5481400974094868
 20
-33526646.5692453011870384
 30
0.0
  0
VERTEX
  5
EC6
  8
L_AISLE_MISC
 10
-5954554.4564390676096082
 20
-33524264.0436506383121014
 30
0.0
  0
VERTEX
  5
EC7
  8
L_AISLE_MISC
 10
-5956366.8688996024429798
 20
-33523477.4331327490508556
 30
0.0
  0
VERTEX
  5
EC8
  8
L_AISLE_MISC
 10
-5954946.2009059516713023
 20
-33520231.0755802914500237
 30
0.0
  0
VERTEX
  5
EC9
  8
L_AISLE_MISC
 10
-5951313.8266277555376291
 20
-33521857.1639133393764496
 30
0.0
  0
SEQEND
  5
ECA
  8
L_AISLE_MISC
  0
POLYLINE
  5
500
  8
L_AISLE_MISC
 66
     1
 10
0.0
 20
0.0
 30
0.0
  0
VERTEX
  5
ECB
  8
L_AISLE_MISC
 10
-5930324.9895624173805118
 20
-33533667.2372729294002056
 30
0.0
  0
VERTEX
  5
ECC
  8
L_AISLE_MISC
 10
-5930841.4908490274101496
 20
-33534693.9486320316791534
 30
0.0
  0
VERTEX
  5
ECD
  8
L_AISLE_MISC
 10
-5931168.1272193649783731
 20
-33535380.9519619606435299
 30
0.0
  0
VERTEX
  5
ECE
  8
L_AISLE_MISC
 10
-5932170.8033098438754678
 20
-33537457.0504418686032295
 30
0.0
  0
VERTEX
  5
ECF
  8
L_AISLE_MISC
 10
-5936610.898653257638216
 20
-33529932.4098546802997589
 30
0.0
  0
VERTEX
  5
ED0
  8
L_AISLE_MISC
 10
-5935631.9222408719360828
 20
-33529268.4981336295604706
 30
0.0
  0
VERTEX
  5
ED1
  8
L_AISLE_MISC
 10
-5934865.4666850147768855
 20
-33528793.2414437681436539
 30
0.0
  0
VERTEX
  5
ED2
  8
L_AISLE_MISC
 10
-5934106.5715222526341677
 20
-33528280.2202230803668499
 30
0.0
  0
VERTEX
  5
ED3
  8
L_AISLE_MISC
 10
-5930324.9895624173805118
 20
-33533667.2372729294002056
 30
0.0
  0
SEQEND
  5
ED4
  8
L_AISLE_MISC
  0
POLYLINE
  5
50B
  8
L_AISLE_MISC
 66
     1
 10
0.0
 20
0.0
 30
0.0
  0
VERTEX
  5
ED5
  8
L_AISLE_MISC
 10
-5957544.7618196913972497
 20
-33515350.8172948881983757
 30
0.0
  0
VERTEX
  5
ED6
  8
L_AISLE_MISC
 10
-5963361.1559355091303587
 20
-33512824.5868821702897549
 30
0.0
  0
VERTEX
  5
ED7
  8
L_AISLE_MISC
 10
-5963527.9965834468603134
 20
-33512764.0598483085632324
 30
0.0
  0
VERTEX
  5
ED8
  8
L_AISLE_MISC
 10
-5963747.9155126186087728
 20
-33512673.2896565683186054
 30
0.0
  0
VERTEX
  5
ED9
  8
L_AISLE_MISC
 10
-5965370.7479353491216898
 20
-33511977.4271126016974449
 30
0.0
  0
VERTEX
  5
EDA
  8
L_AISLE_MISC
 10
-5963972.7944447183981538
 20
-33508670.6406285986304283
 30
0.0
  0
VERTEX
  5
EDB
  8
L_AISLE_MISC
 10
-5962130.0385891869664192
 20
-33509449.7211996987462044
 30
0.0
  0
VERTEX
  5
EDC
  8
L_AISLE_MISC
 10
-5956139.2454557316377759
 20
-33512074.2422048598527908
 30
0.0
  0
VERTEX
  5
EDD
  8
L_AISLE_MISC
 10
-5956382.3866792023181915
 20
-33512678.2298813983798027
 30
0.0
  0
VERTEX
  5
EDE
  8
L_AISLE_MISC
 10
-5957544.7618196913972497
 20
-33515350.8172948881983757
 30
0.0
  0
SEQEND
  5
EDF
  8
L_AISLE_MISC
  0
POLYLINE
  5
517
  8
L_AISLE_MISC
 66
     1
 10
0.0
 20
0.0
 30
0.0
  0
VERTEX
  5
EE0
  8
L_AISLE_MISC
 10
-6009140.8807890107855201
 20
-33514538.2315244190394878
 30
0.0
  0
VERTEX
  5
EE1
  8
L_AISLE_MISC
 10
-6012730.8608923433348536
 20
-33517541.4526197612285614
 30
0.0
  0
VERTEX
  5
EE2
  8
L_AISLE_MISC
 10
-6016854.0612107394263148
 20
-33512637.4894812181591988
 30
0.0
  0
VERTEX
  5
EE3
  8
L_AISLE_MISC
 10
-6017437.6748879114165902
 20
-33511942.3210270591080189
 30
0.0
  0
VERTEX
  5
EE4
  8
L_AISLE_MISC
 10
-6014636.1995298834517598
 20
-33508364.6250025890767574
 30
0.0
  0
VERTEX
  5
EE5
  8
L_AISLE_MISC
 10
-6013089.8961098436266184
 20
-33510049.741482388228178
 30
0.0
  0
VERTEX
  5
EE6
  8
L_AISLE_MISC
 10
-6010740.1412684833630919
 20
-33512641.6271924190223217
 30
0.0
  0
VERTEX
  5
EE7
  8
L_AISLE_MISC
 10
-6009140.8807890107855201
 20
-33514538.2315244190394878
 30
0.0
  0
SEQEND
  5
EE8
  8
L_AISLE_MISC
  0
POLYLINE
  5
521
  8
L_AISLE_MISC
 66
     1
 10
0.0
 20
0.0
 30
0.0
  0
VERTEX
  5
EE9
  8
L_AISLE_MISC
 10
-5965745.165506673976779
 20
-33516040.0888984687626362
 30
0.0
  0
VERTEX
  5
EEA
  8
L_AISLE_MISC
 10
-5966262.3341025402769446
 20
-33518056.0944752581417561
 30
0.0
  0
VERTEX
  5
EEB
  8
L_AISLE_MISC
 10
-5978214.999499193392694
 20
-33514921.5815645083785057
 30
0.0
  0
VERTEX
  5
EEC
  8
L_AISLE_MISC
 10
-5977667.5218983814120293
 20
-33512958.4602415189146996
 30
0.0
  0
VERTEX
  5
EED
  8
L_AISLE_MISC
 10
-5965745.165506673976779
 20
-33516040.0888984687626362
 30
0.0
  0
SEQEND
  5
EEE
  8
L_AISLE_MISC
  0
POLYLINE
  5
528
  8
L_AISLE_MISC
 66
     1
 10
0.0
 20
0.0
 30
0.0
  0
VERTEX
  5
EEF
  8
L_AISLE_MISC
 10
-5966262.3341025402769446
 20
-33518056.0944752581417561
 30
0.0
  0
VERTEX
  5
EF0
  8
L_AISLE_MISC
 10
-5966650.1840804098173976
 20
-33519528.4512652009725571
 30
0.0
  0
VERTEX
  5
EF1
  8
L_AISLE_MISC
 10
-5978580.1151133570820093
 20
-33516424.1606732085347176
 30
0.0
  0
VERTEX
  5
EF2
  8
L_AISLE_MISC
 10
-5978214.999499193392694
 20
-33514921.5815645083785057
 30
0.0
  0
VERTEX
  5
EF3
  8
L_AISLE_MISC
 10
-5966262.3341025402769446
 20
-33518056.0944752581417561
 30
0.0
  0
SEQEND
  5
EF4
  8
L_AISLE_MISC
  0
POLYLINE
  5
52F
  8
L_AISLE_MISC
 66
     1
 10
0.0
 20
0.0
 30
0.0
  0
VERTEX
  5
EF5
  8
L_AISLE_MISC
 10
-6004033.2597511112689972
 20
-33578094.9550810903310776
 30
0.0
  0
VERTEX
  5
EF6
  8
L_AISLE_MISC
 10
-5998065.2709179641678929
 20
-33580840.3954052180051804
 30
0.0
  0
VERTEX
  5
EF7
  8
L_AISLE_MISC
 10
-5999964.4263574667274952
 20
-33584932.3480831384658813
 30
0.0
  0
VERTEX
  5
EF8
  8
L_AISLE_MISC
 10
-6014835.1035665823146701
 20
-33578087.6501896679401398
 30
0.0
  0
SEQEND
  5
EF9
  8
L_AISLE_MISC
  0
POLYLINE
  5
535
  8
L_AISLE_MISC
 66
     1
 10
0.0
 20
0.0
 30
0.0
  0
VERTEX
  5
EFA
  8
L_AISLE_MISC
 10
-6014835.1035665823146701
 20
-33578087.6501896679401398
 30
0.0
  0
VERTEX
  5
EFB
  8
L_AISLE_MISC
 10
-6024549.1908402126282454
 20
-33573625.3343452364206314
 30
0.0
  0
VERTEX
  5
EFC
  8
L_AISLE_MISC
 10
-6022657.6120293568819761
 20
-33569533.3816991969943047
 30
0.0
  0
VERTEX
  5
EFD
  8
L_AISLE_MISC
 10
-6004033.2597511112689972
 20
-33578094.9550810903310776
 30
0.0
  0
SEQEND
  5
EFE
  8
L_AISLE_MISC
  0
POLYLINE
  5
53B
  8
L_AISLE_MISC
 66
     1
 10
0.0
 20
0.0
 30
0.0
  0
VERTEX
  5
EFF
  8
L_AISLE_MISC
 10
-6033199.7551887976005673
 20
-33578075.2007084488868713
 30
0.0
  0
VERTEX
  5
F00
  8
L_AISLE_MISC
 10
-6034133.8821831680834293
 20
-33579698.2666107192635536
 30
0.0
  0
VERTEX
  5
F01
  8
L_AISLE_MISC
 10
-6034967.9097605729475617
 20
-33579131.2931968569755554
 30
0.0
  0
VERTEX
  5
F02
  8
L_AISLE_MISC
 10
-6035331.8117325277999043
 20
-33578828.9622991681098938
 30
0.0
  0
VERTEX
  5
F03
  8
L_AISLE_MISC
 10
-6035574.4267095467075706
 20
-33578647.5472662895917892
 30
0.0
  0
VERTEX
  5
F04
  8
L_AISLE_MISC
 10
-6035847.3634180780500174
 20
-33578435.9032548069953918
 30
0.0
  0
VERTEX
  5
F05
  8
L_AISLE_MISC
 10
-6036287.0799363311380148
 20
-33578073.104071356356144
 30
0.0
  0
SEQEND
  5
F06
  8
L_AISLE_MISC
  0
POLYLINE
  5
544
  8
L_AISLE_MISC
 66
     1
 10
0.0
 20
0.0
 30
0.0
  0
VERTEX
  5
F07
  8
L_AISLE_MISC
 10
-6036287.0799363311380148
 20
-33578073.104071356356144
 30
0.0
  0
VERTEX
  5
F08
  8
L_AISLE_MISC
 10
-6036385.6512338314205408
 20
-33578012.620362862944603
 30
0.0
  0
VERTEX
  5
F09
  8
L_AISLE_MISC
 10
-6036954.2812530267983675
 20
-33577589.316822238266468
 30
0.0
  0
VERTEX
  5
F0A
  8
L_AISLE_MISC
 10
-6037985.2046944228932261
 20
-33576538.8753522112965584
 30
0.0
  0
VERTEX
  5
F0B
  8
L_AISLE_MISC
 10
-6038326.2881871443241835
 20
-33576145.934708297252655
 30
0.0
  0
VERTEX
  5
F0C
  8
L_AISLE_MISC
 10
-6038743.1862150393426418
 20
-33575692.5257800221443176
 30
0.0
  0
VERTEX
  5
F0D
  8
L_AISLE_MISC
 10
-6038985.7240542788058519
 20
-33575397.8292981311678886
 30
0.0
  0
VERTEX
  5
F0E
  8
L_AISLE_MISC
 10
-6039622.3569338899105787
 20
-33574581.7704897299408913
 30
0.0
  0
VERTEX
  5
F0F
  8
L_AISLE_MISC
 10
-6039895.2112915720790625
 20
-33574249.292907789349556
 30
0.0
  0
VERTEX
  5
F10
  8
L_AISLE_MISC
 10
-6041069.5408688616007566
 20
-33572141.4604589268565178
 30
0.0
  0
VERTEX
  5
F11
  8
L_AISLE_MISC
 10
-6038785.9179621720686555
 20
-33571599.2618691772222519
 30
0.0
  0
VERTEX
  5
F12
  8
L_AISLE_MISC
 10
-6037929.550302748568356
 20
-33572777.9704316481947899
 30
0.0
  0
VERTEX
  5
F13
  8
L_AISLE_MISC
 10
-6036754.7889387421309948
 20
-33574251.4268732070922852
 30
0.0
  0
VERTEX
  5
F14
  8
L_AISLE_MISC
 10
-6034768.7617848124355078
 20
-33576299.393266536295414
 30
0.0
  0
VERTEX
  5
F15
  8
L_AISLE_MISC
 10
-6034420.0310266856104136
 20
-33576601.7138399034738541
 30
0.0
  0
VERTEX
  5
F16
  8
L_AISLE_MISC
 10
-6034253.2511999616399407
 20
-33576752.8689700812101364
 30
0.0
  0
VERTEX
  5
F17
  8
L_AISLE_MISC
 10
-6033904.458870492875576
 20
-33576964.5644403174519539
 30
0.0
  0
VERTEX
  5
F18
  8
L_AISLE_MISC
 10
-6033737.6174961859360337
 20
-33577025.0944779887795448
 30
0.0
  0
VERTEX
  5
F19
  8
L_AISLE_MISC
 10
-6032873.1913808872923255
 20
-33577509.0153838992118835
 30
0.0
  0
VERTEX
  5
F1A
  8
L_AISLE_MISC
 10
-6033199.7551887976005673
 20
-33578075.2007084488868713
 30
0.0
  0
SEQEND
  5
F1B
  8
L_AISLE_MISC
  0
POLYLINE
  5
55A
  8
L_AISLE_MISC
 66
     1
 10
0.0
 20
0.0
 30
0.0
  0
VERTEX
  5
F1C
  8
L_AISLE_MISC
 10
-6023281.4713037069886923
 20
-33583443.9156363010406494
 30
0.0
  0
VERTEX
  5
F1D
  8
L_AISLE_MISC
 10
-6024019.1247911853715777
 20
-33586177.2735316008329391
 30
0.0
  0
VERTEX
  5
F1E
  8
L_AISLE_MISC
 10
-6027355.9002726515755057
 20
-33584883.6028717905282974
 30
0.0
  0
VERTEX
  5
F1F
  8
L_AISLE_MISC
 10
-6029198.6814566627144814
 20
-33584127.1433888003230095
 30
0.0
  0
VERTEX
  5
F20
  8
L_AISLE_MISC
 10
-6028088.677992781624198
 20
-33580427.3705088421702385
 30
0.0
  0
VERTEX
  5
F21
  8
L_AISLE_MISC
 10
-6026079.358134257607162
 20
-33581689.9329840093851089
 30
0.0
  0
VERTEX
  5
F22
  8
L_AISLE_MISC
 10
-6024358.1715607857331634
 20
-33582778.6015138328075409
 30
0.0
  0
VERTEX
  5
F23
  8
L_AISLE_MISC
 10
-6023281.4713037069886923
 20
-33583443.9156363010406494
 30
0.0
  0
SEQEND
  5
F24
  8
L_AISLE_MISC
  0
POLYLINE
  5
564
  8
L_AISLE_MISC
 66
     1
 10
0.0
 20
0.0
 30
0.0
  0
VERTEX
  5
F25
  8
L_AISLE_MISC
 10
-6017905.5838579284027219
 20
-33586815.7916850596666336
 30
0.0
  0
VERTEX
  5
F26
  8
L_AISLE_MISC
 10
-6017192.826467570848763
 20
-33587239.1915909573435783
 30
0.0
  0
VERTEX
  5
F27
  8
L_AISLE_MISC
 10
-6016389.0012329174205661
 20
-33587602.2363488525152206
 30
0.0
  0
VERTEX
  5
F28
  8
L_AISLE_MISC
 10
-6015236.3571539614349604
 20
-33588139.2153155207633972
 30
0.0
  0
VERTEX
  5
F29
  8
L_AISLE_MISC
 10
-6014720.6608657399192452
 20
-33588320.8146297782659531
 30
0.0
  0
VERTEX
  5
F2A
  8
L_AISLE_MISC
 10
-6013658.8850475214421749
 20
-33588623.6169808283448219
 30
0.0
  0
VERTEX
  5
F2B
  8
L_AISLE_MISC
 10
-6012779.1220460589975119
 20
-33588865.879301980137825
 30
0.0
  0
VERTEX
  5
F2C
  8
L_AISLE_MISC
 10
-6012308.9595482489094138
 20
-33589077.6560411900281906
 30
0.0
  0
VERTEX
  5
F2D
  8
L_AISLE_MISC
 10
-6011793.1813990129157901
 20
-33589138.4217425286769867
 30
0.0
  0
VERTEX
  5
F2E
  8
L_AISLE_MISC
 10
-6011156.0544935017824173
 20
-33589229.4778769612312317
 30
0.0
  0
VERTEX
  5
F2F
  8
L_AISLE_MISC
 10
-6010814.7240988714620471
 20
-33589259.9171403497457504
 30
0.0
  0
VERTEX
  5
F30
  8
L_AISLE_MISC
 10
-6009805.8836150299757719
 20
-33589321.0162273794412613
 30
0.0
  0
VERTEX
  5
F31
  8
L_AISLE_MISC
 10
-6009267.3282838072627783
 20
-33589351.5888112112879753
 30
0.0
  0
VERTEX
  5
F32
  8
L_AISLE_MISC
 10
-6008804.587838645093143
 20
-33589321.6933500394225121
 30
0.0
  0
VERTEX
  5
F33
  8
L_AISLE_MISC
 10
-6007939.7915489915758371
 20
-33589261.8613265603780746
 30
0.0
  0
VERTEX
  5
F34
  8
L_AISLE_MISC
 10
-6007082.5400015031918883
 20
-33589141.6073670089244843
 30
0.0
  0
VERTEX
  5
F35
  8
L_AISLE_MISC
 10
-6006103.7967938333749771
 20
-33588840.1851960197091103
 30
0.0
  0
VERTEX
  5
F36
  8
L_AISLE_MISC
 10
-6007774.6959387697279453
 20
-33591905.2057095319032669
 30
0.0
  0
VERTEX
  5
F37
  8
L_AISLE_MISC
 10
-6009026.3364514363929629
 20
-33591934.5677933692932129
 30
0.0
  0
VERTEX
  5
F38
  8
L_AISLE_MISC
 10
-6009246.3385901879519224
 20
-33591964.6273970976471901
 30
0.0
  0
VERTEX
  5
F39
  8
L_AISLE_MISC
 10
-6011453.6391216311603785
 20
-33591812.092587523162365
 30
0.0
  0
VERTEX
  5
F3A
  8
L_AISLE_MISC
 10
-6012826.4904424222186208
 20
-33591607.2572378590703011
 30
0.0
  0
VERTEX
  5
F3B
  8
L_AISLE_MISC
 10
-6013000.9178085755556822
 20
-33591546.7224621772766113
 30
0.0
  0
VERTEX
  5
F3C
  8
L_AISLE_MISC
 10
-6015139.6208196086809039
 20
-33590910.8991624563932419
 30
0.0
  0
VERTEX
  5
F3D
  8
L_AISLE_MISC
 10
-6016117.9759861901402473
 20
-33590638.3614868074655533
 30
0.0
  0
VERTEX
  5
F3E
  8
L_AISLE_MISC
 10
-6017073.4516439633443952
 20
-33590184.5889476463198662
 30
0.0
  0
VERTEX
  5
F3F
  8
L_AISLE_MISC
 10
-6017543.6345436619594693
 20
-33590003.0203181505203247
 30
0.0
  0
VERTEX
  5
F40
  8
L_AISLE_MISC
 10
-6018870.6446254421025515
 20
-33589314.8810803666710854
 30
0.0
  0
VERTEX
  5
F41
  8
L_AISLE_MISC
 10
-6019287.6875017620623112
 20
-33589072.9316018000245094
 30
0.0
  0
VERTEX
  5
F42
  8
L_AISLE_MISC
 10
-6018057.2543793683871627
 20
-33586755.272221677005291
 30
0.0
  0
VERTEX
  5
F43
  8
L_AISLE_MISC
 10
-6017905.5838579284027219
 20
-33586815.7916850596666336
 30
0.0
  0
SEQEND
  5
F44
  8
L_AISLE_MISC
  0
POLYLINE
  5
585
  8
L_AISLE_MISC
 66
     1
 10
0.0
 20
0.0
 30
0.0
  0
VERTEX
  5
F45
  8
L_AISLE_MISC
 10
-5940496.5718522612005472
 20
-33578137.6568591296672821
 30
0.0
  0
VERTEX
  5
F46
  8
L_AISLE_MISC
 10
-5940255.3432652857154608
 20
-33580395.8941140696406364
 30
0.0
  0
VERTEX
  5
F47
  8
L_AISLE_MISC
 10
-5945307.7346815373748541
 20
-33580996.6827544122934341
 30
0.0
  0
VERTEX
  5
F48
  8
L_AISLE_MISC
 10
-5945624.4134150808677077
 20
-33578134.2273887023329735
 30
0.0
  0
SEQEND
  5
F49
  8
L_AISLE_MISC
  0
POLYLINE
  5
58B
  8
L_AISLE_MISC
 66
     1
 10
0.0
 20
0.0
 30
0.0
  0
VERTEX
  5
F4A
  8
L_AISLE_MISC
 10
-5945624.4134150808677077
 20
-33578134.2273887023329735
 30
0.0
  0
VERTEX
  5
F4B
  8
L_AISLE_MISC
 10
-5947117.495065257884562
 20
-33564894.4079592227935791
 30
0.0
  0
VERTEX
  5
F4C
  8
L_AISLE_MISC
 10
-5946844.4151481576263905
 20
-33564894.590714618563652
 30
0.0
  0
VERTEX
  5
F4D
  8
L_AISLE_MISC
 10
-5945107.4043210716918111
 20
-33565016.586493007838726
 30
0.0
  0
VERTEX
  5
F4E
  8
L_AISLE_MISC
 10
-5943385.6049604350700974
 20
-33565198.9885085597634315
 30
0.0
  0
VERTEX
  5
F4F
  8
L_AISLE_MISC
 10
-5941959.7027167417109013
 20
-33565471.817461833357811
 30
0.0
  0
VERTEX
  5
F50
  8
L_AISLE_MISC
 10
-5940496.5718522612005472
 20
-33578137.6568591296672821
 30
0.0
  0
SEQEND
  5
F51
  8
L_AISLE_MISC
  0
POLYLINE
  5
594
  8
L_AISLE_MISC
 66
     1
 10
0.0
 20
0.0
 30
0.0
  0
VERTEX
  5
F52
  8
L_AISLE_MISC
 10
-5947369.0932379858568311
 20
-33578133.0598819181323051
 30
0.0
  0
VERTEX
  5
F53
  8
L_AISLE_MISC
 10
-5947007.0229657283052802
 20
-33581176.7959354594349861
 30
0.0
  0
VERTEX
  5
F54
  8
L_AISLE_MISC
 10
-5948751.8449415592476726
 20
-33581387.0866866037249565
 30
0.0
  0
VERTEX
  5
F55
  8
L_AISLE_MISC
 10
-5948993.3343030326068401
 20
-33579521.5578944310545921
 30
0.0
  0
VERTEX
  5
F56
  8
L_AISLE_MISC
 10
-5949166.8720111390575767
 20
-33578131.8564843162894249
 30
0.0
  0
SEQEND
  5
F57
  8
L_AISLE_MISC
  0
POLYLINE
  5
59B
  8
L_AISLE_MISC
 66
     1
 10
0.0
 20
0.0
 30
0.0
  0
VERTEX
  5
F58
  8
L_AISLE_MISC
 10
-5949166.8720111390575767
 20
-33578131.8564843162894249
 30
0.0
  0
VERTEX
  5
F59
  8
L_AISLE_MISC
 10
-5950237.5948365265503526
 20
-33568532.4284795299172401
 30
0.0
  0
VERTEX
  5
F5A
  8
L_AISLE_MISC
 10
-5950652.4032866097986698
 20
-33564952.4582558795809746
 30
0.0
  0
VERTEX
  5
F5B
  8
L_AISLE_MISC
 10
-5948862.1520638111978769
 20
-33564863.031795360147953
 30
0.0
  0
VERTEX
  5
F5C
  8
L_AISLE_MISC
 10
-5947369.0932379858568311
 20
-33578133.0598819181323051
 30
0.0
  0
SEQEND
  5
F5D
  8
L_AISLE_MISC
  0
POLYLINE
  5
5A2
  8
L_AISLE_MISC
 66
     1
 10
0.0
 20
0.0
 30
0.0
  0
VERTEX
  5
F5E
  8
L_AISLE_MISC
 10
-5947369.0932379858568311
 20
-33578133.0598819181323051
 30
0.0
  0
VERTEX
  5
F5F
  8
L_AISLE_MISC
 10
-5948862.1520638111978769
 20
-33564863.031795360147953
 30
0.0
  0
VERTEX
  5
F60
  8
L_AISLE_MISC
 10
-5947117.4748482024297118
 20
-33564864.1995967030525208
 30
0.0
  0
VERTEX
  5
F61
  8
L_AISLE_MISC
 10
-5945624.4134150808677077
 20
-33578134.2273887023329735
 30
0.0
  0
SEQEND
  5
F62
  8
L_AISLE_MISC
  0
POLYLINE
  5
5A8
  8
L_AISLE_MISC
 66
     1
 10
0.0
 20
0.0
 30
0.0
  0
VERTEX
  5
F63
  8
L_AISLE_MISC
 10
-5945624.4134150808677077
 20
-33578134.2273887023329735
 30
0.0
  0
VERTEX
  5
F64
  8
L_AISLE_MISC
 10
-5945307.7346815373748541
 20
-33580996.6827544122934341
 30
0.0
  0
VERTEX
  5
F65
  8
L_AISLE_MISC
 10
-5947007.0229657283052802
 20
-33581176.7959354594349861
 30
0.0
  0
VERTEX
  5
F66
  8
L_AISLE_MISC
 10
-5947369.0932379858568311
 20
-33578133.0598819181323051
 30
0.0
  0
SEQEND
  5
F67
  8
L_AISLE_MISC
  0
POLYLINE
  5
5AE
  8
L_ROADSTRUCTURE
 66
     1
 10
0.0
 20
0.0
 30
0.0
  0
VERTEX
  5
F68
  8
L_ROADSTRUCTURE
 10
-6049479.2534813694655895
 20
-33590494.879353366792202
 30
0.0
  0
VERTEX
  5
F69
  8
L_ROADSTRUCTURE
 10
-6047545.5074593937024474
 20
-33591342.0300654396414757
 30
0.0
  0
SEQEND
  5
F6A
  8
L_ROADSTRUCTURE
  0
POLYLINE
  5
5B2
  8
L_ROADSTRUCTURE
 66
     1
 10
0.0
 20
0.0
 30
0.0
  0
VERTEX
  5
F6B
  8
L_ROADSTRUCTURE
 10
-6041433.3714477773755789
 20
-33594049.8370994627475739
 30
0.0
  0
VERTEX
  5
F6C
  8
L_ROADSTRUCTURE
 10
-6039446.545362968929112
 20
-33594927.2305020466446877
 30
0.0
  0
SEQEND
  5
F6D
  8
L_ROADSTRUCTURE
  0
POLYLINE
  5
5B6
  8
L_ROADSTRUCTURE
 66
     1
 10
0.0
 20
0.0
 30
0.0
  0
VERTEX
  5
F6E
  8
L_ROADSTRUCTURE
 10
-6038953.6674971673637629
 20
-33595199.4408385902643204
 30
0.0
  0
VERTEX
  5
F6F
  8
L_ROADSTRUCTURE
 10
-6037065.3662329353392124
 20
-33595948.3811579495668411
 30
0.0
  0
SEQEND
  5
F70
  8
L_ROADSTRUCTURE
  0
POLYLINE
  5
5BA
  8
L_ROADSTRUCTURE
 66
     1
 10
0.0
 20
0.0
 30
0.0
  0
VERTEX
  5
F71
  8
L_ROADSTRUCTURE
 10
-6030930.4517471781000495
 20
-33598633.540131039917469
 30
0.0
  0
VERTEX
  5
F72
  8
L_ROADSTRUCTURE
 10
-6029163.5440225871279836
 20
-33599420.1568463370203972
 30
0.0
  0
SEQEND
  5
F73
  8
L_ROADSTRUCTURE
  0
POLYLINE
  5
5BE
  8
L_ROADSTRUCTURE
 66
     1
 10
0.0
 20
0.0
 30
0.0
  0
VERTEX
  5
F74
  8
L_ROADSTRUCTURE
 10
-6028814.709689712151885
 20
-33599571.4353868886828423
 30
0.0
  0
VERTEX
  5
F75
  8
L_ROADSTRUCTURE
 10
-6027070.5532185528427362
 20
-33600350.4841558188199997
 30
0.0
  0
SEQEND
  5
F76
  8
L_ROADSTRUCTURE
  0
POLYLINE
  5
5C2
  8
L_ROADSTRUCTURE
 66
     1
 10
0.0
 20
0.0
 30
0.0
  0
VERTEX
  5
F77
  8
L_ROADSTRUCTURE
 10
-6004570.694580459035933
 20
-33610085.2603070735931396
 30
0.0
  0
VERTEX
  5
F78
  8
L_ROADSTRUCTURE
 10
-6001673.8554148133844137
 20
-33611355.9689431264996529
 30
0.0
  0
SEQEND
  5
F79
  8
L_ROADSTRUCTURE
  0
POLYLINE
  5
5C6
  8
L_MAPSYMBOL
 66
     1
 10
0.0
 20
0.0
 30
0.0
  0
VERTEX
  5
F7A
  8
L_MAPSYMBOL
 10
-5925332.1506082220003009
 20
-33474448.6997467689216137
 30
0.0
  0
VERTEX
  5
F7B
  8
L_MAPSYMBOL
 10
-5937426.5452725077047944
 20
-33501853.9635180085897446
 30
0.0
  0
SEQEND
  5
F7C
  8
L_MAPSYMBOL
  0
POLYLINE
  5
5CA
  8
L_MAPSYMBOL
 66
     1
 10
0.0
 20
0.0
 30
0.0
  0
VERTEX
  5
F7D
  8
L_MAPSYMBOL
 10
-6036164.0251598712056875
 20
-33497422.4521999210119247
 30
0.0
  0
VERTEX
  5
F7E
  8
L_MAPSYMBOL
 10
-6044824.0206299973651767
 20
-33493534.8972088992595673
 30
0.0
  0
VERTEX
  5
F7F
  8
L_MAPSYMBOL
 10
-6050232.7170907706022263
 20
-33505025.1828743815422058
 30
0.0
  0
SEQEND
  5
F80
  8
L_MAPSYMBOL
  0
POLYLINE
  5
5CF
  8
L_MAPSYMBOL
 66
     1
 10
0.0
 20
0.0
 30
0.0
  0
VERTEX
  5
F81
  8
L_MAPSYMBOL
 10
-6045547.7785898288711905
 20
-33542742.4761564806103706
 30
0.0
  0
VERTEX
  5
F82
  8
L_MAPSYMBOL
 10
-6070549.7995305778458714
 20
-33531767.6488659381866455
 30
0.0
  0
SEQEND
  5
F83
  8
L_MAPSYMBOL
  0
POLYLINE
  5
5D3
  8
L_MAPSYMBOL
 66
     1
 10
0.0
 20
0.0
 30
0.0
  0
VERTEX
  5
F84
  8
L_MAPSYMBOL
 10
-6046748.5506836278364062
 20
-33512617.1972446218132973
 30
0.0
  0
VERTEX
  5
F85
  8
L_MAPSYMBOL
 10
-6046482.6467875316739082
 20
-33512013.2275166884064674
 30
0.0
  0
SEQEND
  5
F86
  8
L_MAPSYMBOL
  0
POLYLINE
  5
5D7
  8
L_MAPSYMBOL
 66
     1
 10
0.0
 20
0.0
 30
0.0
  0
VERTEX
  5
F87
  8
L_MAPSYMBOL
 10
-6054520.9728994378820062
 20
-33530879.9104332886636257
 30
0.0
  0
VERTEX
  5
F88
  8
L_MAPSYMBOL
 10
-6046748.5506836278364062
 20
-33512617.1972446218132973
 30
0.0
  0
SEQEND
  5
F89
  8
L_MAPSYMBOL
  0
POLYLINE
  5
5DB
  8
L_MAPSYMBOL
 66
     1
 10
0.0
 20
0.0
 30
0.0
  0
VERTEX
  5
F8A
  8
L_MAPSYMBOL
 10
-6040067.4603832764551044
 20
-33537505.1961173489689827
 30
0.0
  0
VERTEX
  5
F8B
  8
L_MAPSYMBOL
 10
-6054520.9728994378820062
 20
-33530879.9104332886636257
 30
0.0
  0
SEQEND
  5
F8C
  8
L_MAPSYMBOL
  0
POLYLINE
  5
5DF
  8
L_GARDENROAD
 66
     1
 10
0.0
 20
0.0
 30
0.0
  0
VERTEX
  5
F8D
  8
L_GARDENROAD
 10
-6025806.2391924606636167
 20
-33536888.0720196403563023
 30
0.0
  0
VERTEX
  5
F8E
  8
L_GARDENROAD
 10
-6030602.2870162716135383
 20
-33550999.2876725010573864
 30
0.0
  0
VERTEX
  5
F8F
  8
L_GARDENROAD
 10
-6031415.0829934943467379
 20
-33552682.8059059791266918
 30
0.0
  0
VERTEX
  5
F90
  8
L_GARDENROAD
 10
-6032516.3555347258225083
 20
-33554698.4110746309161186
 30
0.0
  0
VERTEX
  5
F91
  8
L_GARDENROAD
 10
-6034020.0317414626479149
 20
-33557257.4784247204661369
 30
0.0
  0
VERTEX
  5
F92
  8
L_GARDENROAD
 10
-6035470.5843231352046132
 20
-33559778.8221808299422264
 30
0.0
  0
VERTEX
  5
F93
  8
L_GARDENROAD
 10
-6036252.5114425234496593
 20
-33560684.5169959887862206
 30
0.0
  0
VERTEX
  5
F94
  8
L_GARDENROAD
 10
-6034665.4184109522029757
 20
-33563747.883395716547966
 30
0.0
  0
SEQEND
  5
F95
  8
L_GARDENROAD
  0
POLYLINE
  5
5E9
  8
L_GARDENROAD
 66
     1
 10
0.0
 20
0.0
 30
0.0
  0
VERTEX
  5
F96
  8
L_GARDENROAD
 10
-6027152.9290970368310809
 20
-33531676.3594046197831631
 30
0.0
  0
VERTEX
  5
F97
  8
L_GARDENROAD
 10
-6023467.3622255846858025
 20
-33533151.4756383411586285
 30
0.0
  0
VERTEX
  5
F98
  8
L_GARDENROAD
 10
-6023368.5097939250990748
 20
-33532796.6041416488587856
 30
0.0
  0
VERTEX
  5
F99
  8
L_GARDENROAD
 10
-6023147.9562420276924968
 20
-33531950.9427359104156494
 30
0.0
  0
VERTEX
  5
F9A
  8
L_GARDENROAD
 10
-6022881.9100565258413553
 20
-33531135.5196905396878719
 30
0.0
  0
VERTEX
  5
F9B
  8
L_GARDENROAD
 10
-6022555.2053246321156621
 20
-33530357.8971652910113335
 30
0.0
  0
VERTEX
  5
F9C
  8
L_GARDENROAD
 10
-6022190.6088570598512888
 20
-33529633.1634859591722488
 30
0.0
  0
VERTEX
  5
F9D
  8
L_GARDENROAD
 10
-6021795.6345368679612875
 20
-33528855.5871971100568771
 30
0.0
  0
VERTEX
  5
F9E
  8
L_GARDENROAD
 10
-6021332.4468800276517868
 20
-33528161.1278249695897102
 30
0.0
  0
VERTEX
  5
F9F
  8
L_GARDENROAD
 10
-6020884.430336082354188
 20
-33527466.6581497602164745
 30
0.0
  0
VERTEX
  5
FA0
  8
L_GARDENROAD
 10
-6020322.6566358236595988
 20
-33526810.0249392911791801
 30
0.0
  0
VERTEX
  5
FA1
  8
L_GARDENROAD
 10
-6019753.3128459611907601
 20
-33526176.0524685718119144
 30
0.0
  0
VERTEX
  5
FA2
  8
L_GARDENROAD
 10
-6019146.0619998713955283
 20
-33525572.3131713010370731
 30
0.0
  0
VERTEX
  5
FA3
  8
L_GARDENROAD
 10
-6018531.2512913644313812
 20
-33525006.3383680507540703
 30
0.0
  0
VERTEX
  5
FA4
  8
L_GARDENROAD
 10
-6017863.3778316229581833
 20
-33524493.2626394592225552
 30
0.0
  0
VERTEX
  5
FA5
  8
L_GARDENROAD
 10
-6017150.0117930499836802
 20
-33524010.4251990802586079
 30
0.0
  0
VERTEX
  5
FA6
  8
L_GARDENROAD
 10
-6016444.2518025627359748
 20
-33523557.7900816686451435
 30
0.0
  0
VERTEX
  5
FA7
  8
L_GARDENROAD
 10
-6015677.8281898014247417
 20
-33523135.4035109281539917
 30
0.0
  0
VERTEX
  5
FA8
  8
L_GARDENROAD
 10
-6014919.0566255589947104
 20
-33522811.1861757896840572
 30
0.0
  0
VERTEX
  5
FA9
  8
L_GARDENROAD
 10
-6014129.958381456322968
 20
-33522509.6449500396847725
 30
0.0
  0
VERTEX
  5
FAA
  8
L_GARDENROAD
 10
-6013325.7095989612862468
 20
-33522238.3214389011263847
 30
0.0
  0
VERTEX
  5
FAB
  8
L_GARDENROAD
 10
-6012491.139237736351788
 20
-33521997.2259036600589752
 30
0.0
  0
VERTEX
  5
FAC
  8
L_GARDENROAD
 10
-6011679.3867826908826828
 20
-33521846.737450011074543
 30
0.0
  0
VERTEX
  5
FAD
  8
L_GARDENROAD
 10
-6010814.5766040189191699
 20
-33521756.6998801790177822
 30
0.0
  0
VERTEX
  5
FAE
  8
L_GARDENROAD
 10
-6010010.4301443472504616
 20
-33521636.4136624485254288
 30
0.0
  0
SEQEND
  5
FAF
  8
L_GARDENROAD
  0
POLYLINE
  5
604
  8
L_GARDENROAD
 66
     1
 10
0.0
 20
0.0
 30
0.0
  0
VERTEX
  5
FB0
  8
L_GARDENROAD
 10
-6023743.5025044353678823
 20
-33537667.3145027384161949
 30
0.0
  0
VERTEX
  5
FB1
  8
L_GARDENROAD
 10
-6025806.2391924606636167
 20
-33536888.0720196403563023
 30
0.0
  0
VERTEX
  5
FB2
  8
L_GARDENROAD
 10
-6029120.1932145962491632
 20
-33535526.4852141290903091
 30
0.0
  0
SEQEND
  5
FB3
  8
L_GARDENROAD
  0
POLYLINE
  5
609
  8
L_GARDENROAD
 66
     1
 10
0.0
 20
0.0
 30
0.0
  0
VERTEX
  5
FB4
  8
L_GARDENROAD
 10
-6020555.3360807383432984
 20
-33545553.6409353092312813
 30
0.0
  0
VERTEX
  5
FB5
  8
L_GARDENROAD
 10
-6021093.4230687338858843
 20
-33544835.8474750407040119
 30
0.0
  0
VERTEX
  5
FB6
  8
L_GARDENROAD
 10
-6022002.7252550208941102
 20
-33543415.4773126505315304
 30
0.0
  0
VERTEX
  5
FB7
  8
L_GARDENROAD
 10
-6022373.9097705073654652
 20
-33542667.5893470197916031
 30
0.0
  0
VERTEX
  5
FB8
  8
L_GARDENROAD
 10
-6022714.7264984855428338
 20
-33541881.9625331982970238
 30
0.0
  0
VERTEX
  5
FB9
  8
L_GARDENROAD
 10
-6023010.0350861754268408
 20
-33541103.9184321202337742
 30
0.0
  0
VERTEX
  5
FBA
  8
L_GARDENROAD
 10
-6023274.975897841155529
 20
-33540288.1354920491576195
 30
0.0
  0
VERTEX
  5
FBB
  8
L_GARDENROAD
 10
-6023471.6468776678666472
 20
-33539472.3988188281655312
 30
0.0
  0
VERTEX
  5
FBC
  8
L_GARDENROAD
 10
-6023622.7892799125984311
 20
-33538634.0373540483415127
 30
0.0
  0
VERTEX
  5
FBD
  8
L_GARDENROAD
 10
-6023743.5025044353678823
 20
-33537667.3145027384161949
 30
0.0
  0
SEQEND
  5
FBE
  8
L_GARDENROAD
  0
POLYLINE
  5
615
  8
L_GARDENROAD
 66
     1
 10
0.0
 20
0.0
 30
0.0
  0
VERTEX
  5
FBF
  8
L_GARDENROAD
 10
-5927332.1766057973727584
 20
-33527499.3457384891808033
 30
0.0
  0
VERTEX
  5
FC0
  8
L_GARDENROAD
 10
-5930744.6782926321029663
 20
-33526024.4516448490321636
 30
0.0
  0
VERTEX
  5
FC1
  8
L_GARDENROAD
 10
-5934106.5715222526341677
 20
-33528280.2202230803668499
 30
0.0
  0
SEQEND
  5
FC2
  8
L_GARDENROAD
  0
POLYLINE
  5
61A
  8
L_GARDENROAD
 66
     1
 10
0.0
 20
0.0
 30
0.0
  0
VERTEX
  5
FC3
  8
L_GARDENROAD
 10
-5953882.1086819441989064
 20
-33517067.5495924390852451
 30
0.0
  0
VERTEX
  5
FC4
  8
L_GARDENROAD
 10
-5957544.7618196913972497
 20
-33515350.8172948881983757
 30
0.0
  0
SEQEND
  5
FC5
  8
L_GARDENROAD
  0
POLYLINE
  5
61E
  8
L_GARDENROAD
 66
     1
 10
0.0
 20
0.0
 30
0.0
  0
VERTEX
  5
FC6
  8
L_GARDENROAD
 10
-5945080.3055541459470987
 20
-33524512.0474809296429157
 30
0.0
  0
VERTEX
  5
FC7
  8
L_GARDENROAD
 10
-5945270.9085709601640701
 20
-33525954.3296147100627422
 30
0.0
  0
VERTEX
  5
FC8
  8
L_GARDENROAD
 10
-5945271.8736210027709603
 20
-33527396.7386208288371563
 30
0.0
  0
VERTEX
  5
FC9
  8
L_GARDENROAD
 10
-5944954.2922022128477693
 20
-33528907.3276914991438389
 30
0.0
  0
VERTEX
  5
FCA
  8
L_GARDENROAD
 10
-5944340.8095765663310885
 20
-33530319.9402139894664288
 30
0.0
  0
VERTEX
  5
FCB
  8
L_GARDENROAD
 10
-5943537.5269984789192677
 20
-33531491.0193890295922756
 30
0.0
  0
VERTEX
  5
FCC
  8
L_GARDENROAD
 10
-5942529.0966478576883674
 20
-33532156.2595254704356194
 30
0.0
  0
VERTEX
  5
FCD
  8
L_GARDENROAD
 10
-5941254.6274325773119926
 20
-33532006.074070181697607
 30
0.0
  0
VERTEX
  5
FCE
  8
L_GARDENROAD
 10
-5939630.5628510983660817
 20
-33530866.8254517391324043
 30
0.0
  0
VERTEX
  5
FCF
  8
L_GARDENROAD
 10
-5937125.3266717782244086
 20
-33527855.2983462102711201
 30
0.0
  0
SEQEND
  5
FD0
  8
L_GARDENROAD
  0
POLYLINE
  5
62A
  8
L_GARDENROAD
 66
     1
 10
0.0
 20
0.0
 30
0.0
  0
VERTEX
  5
FD1
  8
L_GARDENROAD
 10
-5934865.4666850147768855
 20
-33528793.2414437681436539
 30
0.0
  0
VERTEX
  5
FD2
  8
L_GARDENROAD
 10
-5937125.3266717782244086
 20
-33527855.2983462102711201
 30
0.0
  0
VERTEX
  5
FD3
  8
L_GARDENROAD
 10
-5945080.3055541459470987
 20
-33524512.0474809296429157
 30
0.0
  0
VERTEX
  5
FD4
  8
L_GARDENROAD
 10
-5947112.678705845028162
 20
-33523695.0841563083231449
 30
0.0
  0
SEQEND
  5
FD5
  8
L_GARDENROAD
  0
POLYLINE
  5
630
  8
L_GARDENROAD
 66
     1
 10
0.0
 20
0.0
 30
0.0
  0
VERTEX
  5
FD6
  8
L_GARDENROAD
 10
-5939929.6946773361414671
 20
-33535798.0050410889089108
 30
0.0
  0
VERTEX
  5
FD7
  8
L_GARDENROAD
 10
-5938602.489665487781167
 20
-33536191.5900240689516068
 30
0.0
  0
VERTEX
  5
FD8
  8
L_GARDENROAD
 10
-5937525.6877297349274158
 20
-33536705.8376228101551533
 30
0.0
  0
VERTEX
  5
FD9
  8
L_GARDENROAD
 10
-5936889.0027892934158444
 20
-33537453.8994236886501312
 30
0.0
  0
VERTEX
  5
FDA
  8
L_GARDENROAD
 10
-5936737.917819257825613
 20
-33538390.433837428689003
 30
0.0
  0
VERTEX
  5
FDB
  8
L_GARDENROAD
 10
-5936890.2086578421294689
 20
-33539258.7986192889511585
 30
0.0
  0
VERTEX
  5
FDC
  8
L_GARDENROAD
 10
-5937133.3493131473660469
 20
-33539862.7867978811264038
 30
0.0
  0
VERTEX
  5
FDD
  8
L_GARDENROAD
 10
-5937527.9988053003326058
 20
-33540164.5984231792390347
 30
0.0
  0
VERTEX
  5
FDE
  8
L_GARDENROAD
 10
-5938210.7572459727525711
 20
-33540254.7647850587964058
 30
0.0
  0
VERTEX
  5
FDF
  8
L_GARDENROAD
 10
-5939075.326200601644814
 20
-33539982.3192069008946419
 30
0.0
  0
VERTEX
  5
FE0
  8
L_GARDENROAD
 10
-5939878.9079693555831909
 20
-33539256.8013414107263088
 30
0.0
  0
VERTEX
  5
FE1
  8
L_GARDENROAD
 10
-5940393.9213906172662973
 20
-33538055.7076957710087299
 30
0.0
  0
VERTEX
  5
FE2
  8
L_GARDENROAD
 10
-5940620.5028116274625063
 20
-33536582.9390616416931152
 30
0.0
  0
VERTEX
  5
FE3
  8
L_GARDENROAD
 10
-5939929.6946773361414671
 20
-33535798.0050410889089108
 30
0.0
  0
SEQEND
  5
FE4
  8
L_GARDENROAD
  0
POLYLINE
  5
640
  8
L_GARDENROAD
 66
     1
 10
0.0
 20
0.0
 30
0.0
  0
VERTEX
  5
FE5
  8
L_GARDENROAD
 10
-5948666.0494172032922506
 20
-33532544.8512655682861805
 30
0.0
  0
VERTEX
  5
FE6
  8
L_GARDENROAD
 10
-5946337.8540169838815928
 20
-33533384.6685413718223572
 30
0.0
  0
VERTEX
  5
FE7
  8
L_GARDENROAD
 10
-5945155.3607445638626814
 20
-33534654.1760847382247448
 30
0.0
  0
VERTEX
  5
FE8
  8
L_GARDENROAD
 10
-5944443.0638048611581326
 20
-33535764.7793964892625809
 30
0.0
  0
VERTEX
  5
FE9
  8
L_GARDENROAD
 10
-5944641.0352456383407116
 20
-33536882.3256258890032768
 30
0.0
  0
VERTEX
  5
FEA
  8
L_GARDENROAD
 10
-5945453.2679400090128183
 20
-33537750.2487504705786705
 30
0.0
  0
VERTEX
  5
FEB
  8
L_GARDENROAD
 10
-5946727.960419837385416
 20
-33538232.7163010910153389
 30
0.0
  0
VERTEX
  5
FEC
  8
L_GARDENROAD
 10
-5948374.0407372117042542
 20
-33538261.8220988102257252
 30
0.0
  0
VERTEX
  5
FED
  8
L_GARDENROAD
 10
-5950262.6153079476207495
 20
-33537928.2748376801609993
 30
0.0
  0
VERTEX
  5
FEE
  8
L_GARDENROAD
 10
-5952059.8851694278419018
 20
-33537179.4347740113735199
 30
0.0
  0
VERTEX
  5
FEF
  8
L_GARDENROAD
 10
-5953060.5274817673489451
 20
-33536212.1234624609351158
 30
0.0
  0
VERTEX
  5
FF0
  8
L_GARDENROAD
 10
-5952741.1916115684434772
 20
-33535102.2106008194386959
 30
0.0
  0
VERTEX
  5
FF1
  8
L_GARDENROAD
 10
-5951663.3183189909905195
 20
-33534015.4614540413022041
 30
0.0
  0
VERTEX
  5
FF2
  8
L_GARDENROAD
 10
-5950115.1881956132128835
 20
-33532996.994019690901041
 30
0.0
  0
VERTEX
  5
FF3
  8
L_GARDENROAD
 10
-5948666.0494172032922506
 20
-33532544.8512655682861805
 30
0.0
  0
SEQEND
  5
FF4
  8
L_GARDENROAD
  0
POLYLINE
  5
651
  8
L_GARDENROAD
 66
     1
 10
0.0
 20
0.0
 30
0.0
  0
VERTEX
  5
FF5
  8
L_GARDENROAD
 10
-5948540.9147403826937079
 20
-33526918.7822252102196217
 30
0.0
  0
VERTEX
  5
FF6
  8
L_GARDENROAD
 10
-5948366.6449189325794578
 20
-33527213.4223206005990505
 30
0.0
  0
VERTEX
  5
FF7
  8
L_GARDENROAD
 10
-5948564.1920108450576663
 20
-33527696.6105911396443844
 30
0.0
  0
VERTEX
  5
FF8
  8
L_GARDENROAD
 10
-5949475.0006462428718805
 20
-33528511.6041899509727955
 30
0.0
  0
VERTEX
  5
FF9
  8
L_GARDENROAD
 10
-5951318.9855399364605546
 20
-33529560.0811331495642662
 30
0.0
  0
VERTEX
  5
FFA
  8
L_GARDENROAD
 10
-5954019.9377273051068187
 20
-33530313.4601007699966431
 30
0.0
  0
VERTEX
  5
FFB
  8
L_GARDENROAD
 10
-5957501.733577667735517
 20
-33530371.5415460094809532
 30
0.0
  0
VERTEX
  5
FFC
  8
L_GARDENROAD
 10
-5961112.0983610711991787
 20
-33529855.5922735594213009
 30
0.0
  0
VERTEX
  5
FFD
  8
L_GARDENROAD
 10
-5964130.5131714027374983
 20
-33528924.6852908805012703
 30
0.0
  0
VERTEX
  5
FFE
  8
L_GARDENROAD
 10
-5966359.886050321161747
 20
-33527775.3024908490478992
 30
0.0
  0
VERTEX
  5
FFF
  8
L_GARDENROAD
 10
-5968035.3987027127295732
 20
-33526452.5978177897632122
 30
0.0
  0
VERTEX
  5
1000
  8
L_GARDENROAD
 10
-5969968.3314447365701199
 20
-33524404.7391125299036503
 30
0.0
  0
VERTEX
  5
1001
  8
L_GARDENROAD
 10
-5970801.9063057508319616
 20
-33523165.6702249981462955
 30
0.0
  0
SEQEND
  5
1002
  8
L_GARDENROAD
  0
POLYLINE
  5
660
  8
L_GARDENROAD
 66
     1
 10
0.0
 20
0.0
 30
0.0
  0
VERTEX
  5
1003
  8
L_GARDENROAD
 10
-5954402.8067931300029159
 20
-33524354.7678665481507778
 30
0.0
  0
VERTEX
  5
1004
  8
L_GARDENROAD
 10
-5954949.2880235379561782
 20
-33524837.7221771590411663
 30
0.0
  0
VERTEX
  5
1005
  8
L_GARDENROAD
 10
-5956072.2029815316200256
 20
-33525222.1156246513128281
 30
0.0
  0
VERTEX
  5
1006
  8
L_GARDENROAD
 10
-5957134.2161824125796556
 20
-33525281.8187909685075283
 30
0.0
  0
VERTEX
  5
1007
  8
L_GARDENROAD
 10
-5959189.6944110654294491
 20
-33524985.9171425700187683
 30
0.0
  0
VERTEX
  5
1008
  8
L_GARDENROAD
 10
-5962337.2591956378892064
 20
-33524349.4475862681865692
 30
0.0
  0
VERTEX
  5
1009
  8
L_GARDENROAD
 10
-5964225.7289152862504125
 20
-33523864.8597531281411648
 30
0.0
  0
VERTEX
  5
100A
  8
L_GARDENROAD
 10
-5964817.2979451008141041
 20
-33523713.425019308924675
 30
0.0
  0
SEQEND
  5
100B
  8
L_GARDENROAD
  0
POLYLINE
  5
66A
  8
L_GARDENROAD
 66
     1
 10
0.0
 20
0.0
 30
0.0
  0
VERTEX
  5
100C
  8
L_GARDENROAD
 10
-5979569.4077587015926838
 20
-33521143.4219795316457748
 30
0.0
  0
VERTEX
  5
100D
  8
L_GARDENROAD
 10
-5971469.315126751549542
 20
-33522991.5284385494887829
 30
0.0
  0
VERTEX
  5
100E
  8
L_GARDENROAD
 10
-5970801.9063057508319616
 20
-33523165.6702249981462955
 30
0.0
  0
SEQEND
  5
100F
  8
L_GARDENROAD
  0
POLYLINE
  5
66F
  8
L_GARDENROAD
 66
     1
 10
0.0
 20
0.0
 30
0.0
  0
VERTEX
  5
1010
  8
L_GARDENROAD
 10
-5966650.1840804098173976
 20
-33519528.4512652009725571
 30
0.0
  0
VERTEX
  5
1011
  8
L_GARDENROAD
 10
-5965772.3684766134247184
 20
-33522663.072125319391489
 30
0.0
  0
VERTEX
  5
1012
  8
L_GARDENROAD
 10
-5965332.7481535878032446
 20
-33523169.3434237912297249
 30
0.0
  0
VERTEX
  5
1013
  8
L_GARDENROAD
 10
-5964817.2979451008141041
 20
-33523713.425019308924675
 30
0.0
  0
SEQEND
  5
1014
  8
L_GARDENROAD
  0
POLYLINE
  5
675
  8
L_GARDENROAD
 66
     1
 10
0.0
 20
0.0
 30
0.0
  0
VERTEX
  5
1015
  8
L_GARDENROAD
 10
-5923151.7540469532832503
 20
-33526301.3838545605540276
 30
0.0
  0
VERTEX
  5
1016
  8
L_GARDENROAD
 10
-5954743.9168277075514197
 20
-33512679.3280098512768745
 30
0.0
  0
VERTEX
  5
1017
  8
L_GARDENROAD
 10
-5956139.2454557316377759
 20
-33512074.2422048598527908
 30
0.0
  0
SEQEND
  5
1018
  8
L_GARDENROAD
  0
POLYLINE
  5
67A
  8
L_GARDENROAD
 66
     1
 10
0.0
 20
0.0
 30
0.0
  0
VERTEX
  5
1019
  8
L_GARDENROAD
 10
-5965370.7479353491216898
 20
-33511977.4271126016974449
 30
0.0
  0
VERTEX
  5
101A
  8
L_GARDENROAD
 10
-5972074.0733634354546666
 20
-33508604.7845926098525524
 30
0.0
  0
VERTEX
  5
101B
  8
L_GARDENROAD
 10
-5971185.1128334207460284
 20
-33506437.9915023595094681
 30
0.0
  0
SEQEND
  5
101C
  8
L_GARDENROAD
  0
POLYLINE
  5
67F
  8
L_GARDENROAD
 66
     1
 10
0.0
 20
0.0
 30
0.0
  0
VERTEX
  5
101D
  8
L_GARDENROAD
 10
-5977667.5218983814120293
 20
-33512958.4602415189146996
 30
0.0
  0
VERTEX
  5
101E
  8
L_GARDENROAD
 10
-5977599.0541927348822355
 20
-33512663.9828540682792664
 30
0.0
  0
VERTEX
  5
101F
  8
L_GARDENROAD
 10
-5976390.3273590682074428
 20
-33508752.9203652106225491
 30
0.0
  0
VERTEX
  5
1020
  8
L_GARDENROAD
 10
-5979044.1566238049417734
 20
-33507119.9283228404819965
 30
0.0
  0
VERTEX
  5
1021
  8
L_GARDENROAD
 10
-5995679.6489731315523386
 20
-33496581.3939999490976334
 30
0.0
  0
SEQEND
  5
1022
  8
L_GARDENROAD
  0
POLYLINE
  5
686
  8
L_GARDENROAD
 66
     1
 10
0.0
 20
0.0
 30
0.0
  0
VERTEX
  5
1023
  8
L_GARDENROAD
 10
-6014636.1995298834517598
 20
-33508364.6250025890767574
 30
0.0
  0
VERTEX
  5
1024
  8
L_GARDENROAD
 10
-6012427.0649504810571671
 20
-33505775.8240289986133575
 30
0.0
  0
VERTEX
  5
1025
  8
L_GARDENROAD
 10
-6008175.644872298464179
 20
-33500545.2444204911589622
 30
0.0
  0
VERTEX
  5
1026
  8
L_GARDENROAD
 10
-6006330.74043592158705
 20
-33498137.4408347085118294
 30
0.0
  0
VERTEX
  5
1027
  8
L_GARDENROAD
 10
-6004956.5459096878767014
 20
-33496333.4694502502679825
 30
0.0
  0
VERTEX
  5
1028
  8
L_GARDENROAD
 10
-6004197.4453411158174276
 20
-33495518.3789897114038467
 30
0.0
  0
VERTEX
  5
1029
  8
L_GARDENROAD
 10
-6003825.5928586851805449
 20
-33495276.969970341771841
 30
0.0
  0
VERTEX
  5
102A
  8
L_GARDENROAD
 10
-6003339.8763602459803224
 20
-33494914.8077254183590412
 30
0.0
  0
VERTEX
  5
102B
  8
L_GARDENROAD
 10
-6002649.5964549379423261
 20
-33494915.2740498892962933
 30
0.0
  0
VERTEX
  5
102C
  8
L_GARDENROAD
 10
-5999608.3234612233936787
 20
-33495672.5163091905415058
 30
0.0
  0
SEQEND
  5
102D
  8
L_GARDENROAD
  0
POLYLINE
  5
692
  8
L_GARDENROAD
 66
     1
 10
0.0
 20
0.0
 30
0.0
  0
VERTEX
  5
102E
  8
L_GARDENROAD
 10
-5995679.6489731315523386
 20
-33496581.3939999490976334
 30
0.0
  0
VERTEX
  5
102F
  8
L_GARDENROAD
 10
-5977714.4683085568249226
 20
-33503813.0980362482368946
 30
0.0
  0
VERTEX
  5
1030
  8
L_GARDENROAD
 10
-5971185.1128334207460284
 20
-33506437.9915023595094681
 30
0.0
  0
SEQEND
  5
1031
  8
L_GARDENROAD
  0
POLYLINE
  5
697
  8
L_GARDENROAD
 66
     1
 10
0.0
 20
0.0
 30
0.0
  0
VERTEX
  5
1032
  8
L_GARDENROAD
 10
-5979044.1566238049417734
 20
-33507119.9283228404819965
 30
0.0
  0
VERTEX
  5
1033
  8
L_GARDENROAD
 10
-5977714.4683085568249226
 20
-33503813.0980362482368946
 30
0.0
  0
SEQEND
  5
1034
  8
L_GARDENROAD
  0
POLYLINE
  5
69B
  8
L_GARDENROAD
 66
     1
 10
0.0
 20
0.0
 30
0.0
  0
VERTEX
  5
1035
  8
L_GARDENROAD
 10
-6047318.0635288404300809
 20
-33591523.4350983202457428
 30
0.0
  0
VERTEX
  5
1036
  8
L_GARDENROAD
 10
-6046163.7662425115704536
 20
-33589628.6450352966785431
 30
0.0
  0
VERTEX
  5
1037
  8
L_GARDENROAD
 10
-6045062.9743155380710959
 20
-33588330.4338237717747688
 30
0.0
  0
VERTEX
  5
1038
  8
L_GARDENROAD
 10
-6043613.3337083086371422
 20
-33587160.8453294932842255
 30
0.0
  0
VERTEX
  5
1039
  8
L_GARDENROAD
 10
-6041427.6671572420746088
 20
-33585659.4648973867297173
 30
0.0
  0
VERTEX
  5
103A
  8
L_GARDENROAD
 10
-6038506.0522570600733161
 20
-33583939.5733420178294182
 30
0.0
  0
VERTEX
  5
103B
  8
L_GARDENROAD
 10
-6035577.1452994653955102
 20
-33582650.1551201567053795
 30
0.0
  0
VERTEX
  5
103C
  8
L_GARDENROAD
 10
-6032876.1292212279513478
 20
-33581836.3631260022521019
 30
0.0
  0
VERTEX
  5
103D
  8
L_GARDENROAD
 10
-6031140.0388451116159558
 20
-33583317.7519639730453491
 30
0.0
  0
VERTEX
  5
103E
  8
L_GARDENROAD
 10
-6041774.6813852628692985
 20
-33593989.1882994994521141
 30
0.0
  0
SEQEND
  5
103F
  8
L_GARDENROAD
  0
POLYLINE
  5
6A7
  8
L_GARDENROAD
 66
     1
 10
0.0
 20
0.0
 30
0.0
  0
VERTEX
  5
1040
  8
L_GARDENROAD
 10
-6039150.8514946512877941
 20
-33595138.8900842815637589
 30
0.0
  0
VERTEX
  5
1041
  8
L_GARDENROAD
 10
-6035340.0082003204151988
 20
-33590897.2025072574615479
 30
0.0
  0
VERTEX
  5
1042
  8
L_GARDENROAD
 10
-6029198.6814566627144814
 20
-33584127.1433888003230095
 30
0.0
  0
VERTEX
  5
1043
  8
L_GARDENROAD
 10
-6022691.9978536013513803
 20
-33586691.7154669836163521
 30
0.0
  0
VERTEX
  5
1044
  8
L_GARDENROAD
 10
-6026037.5627944283187389
 20
-33587172.781365379691124
 30
0.0
  0
VERTEX
  5
1045
  8
L_GARDENROAD
 10
-6029762.7500761477276683
 20
-33588159.5786957368254662
 30
0.0
  0
VERTEX
  5
1046
  8
L_GARDENROAD
 10
-6032957.1377146160230041
 20
-33589426.162311427295208
 30
0.0
  0
SEQEND
  5
1047
  8
L_GARDENROAD
  0
POLYLINE
  5
6B0
  8
L_GARDENROAD
 66
     1
 10
0.0
 20
0.0
 30
0.0
  0
VERTEX
  5
1048
  8
L_GARDENROAD
 10
-6032957.1377146160230041
 20
-33589426.162311427295208
 30
0.0
  0
VERTEX
  5
1049
  8
L_GARDENROAD
 10
-6035340.0082003204151988
 20
-33590897.2025072574615479
 30
0.0
  0
SEQEND
  5
104A
  8
L_GARDENROAD
  0
POLYLINE
  5
6B4
  8
L_GARDENROAD
 66
     1
 10
0.0
 20
0.0
 30
0.0
  0
VERTEX
  5
104B
  8
L_GARDENROAD
 10
-6036845.5280750766396523
 20
-33596159.989128477871418
 30
0.0
  0
VERTEX
  5
104C
  8
L_GARDENROAD
 10
-6033915.4532846426591277
 20
-33593156.2459162399172783
 30
0.0
  0
VERTEX
  5
104D
  8
L_GARDENROAD
 10
-6031608.3356707831844687
 20
-33591534.1120518296957016
 30
0.0
  0
VERTEX
  5
104E
  8
L_GARDENROAD
 10
-6028542.799773994833231
 20
-33590116.3986678197979927
 30
0.0
  0
VERTEX
  5
104F
  8
L_GARDENROAD
 10
-6025325.9271927112713456
 20
-33589250.0896782502532005
 30
0.0
  0
VERTEX
  5
1050
  8
L_GARDENROAD
 10
-6022526.6865935176610947
 20
-33589010.3202612698078156
 30
0.0
  0
VERTEX
  5
1051
  8
L_GARDENROAD
 10
-6024440.2889282768592238
 20
-33592014.7564133331179619
 30
0.0
  0
VERTEX
  5
1052
  8
L_GARDENROAD
 10
-6027712.1671064822003245
 20
-33595690.4072333872318268
 30
0.0
  0
VERTEX
  5
1053
  8
L_GARDENROAD
 10
-6031218.683361578732729
 20
-33598603.1361353397369385
 30
0.0
  0
SEQEND
  5
1054
  8
L_GARDENROAD
  0
POLYLINE
  5
6BF
  8
L_GARDENROAD
 66
     1
 10
0.0
 20
0.0
 30
0.0
  0
VERTEX
  5
1055
  8
L_GARDENROAD
 10
-6029065.013429032638669
 20
-33599541.057194210588932
 30
0.0
  0
VERTEX
  5
1056
  8
L_GARDENROAD
 10
-6024366.353114734403789
 20
-33594846.8416411876678467
 30
0.0
  0
VERTEX
  5
1057
  8
L_GARDENROAD
 10
-6021739.6395025020465255
 20
-33591744.7115335166454315
 30
0.0
  0
VERTEX
  5
1058
  8
L_GARDENROAD
 10
-6021344.6010532667860389
 20
-33590876.4884533807635307
 30
0.0
  0
VERTEX
  5
1059
  8
L_GARDENROAD
 10
-6021056.0216964473947883
 20
-33590393.3499987572431564
 30
0.0
  0
VERTEX
  5
105A
  8
L_GARDENROAD
 10
-6020410.1477711806073785
 20
-33588770.087463453412056
 30
0.0
  0
VERTEX
  5
105B
  8
L_GARDENROAD
 10
-6019287.6875017620623112
 20
-33589072.9316018000245094
 30
0.0
  0
SEQEND
  5
105C
  8
L_GARDENROAD
  0
POLYLINE
  5
6C8
  8
L_GARDENROAD
 66
     1
 10
0.0
 20
0.0
 30
0.0
  0
VERTEX
  5
105D
  8
L_GARDENROAD
 10
-6029065.013429032638669
 20
-33599541.057194210588932
 30
0.0
  0
VERTEX
  5
105E
  8
L_GARDENROAD
 10
-6024178.2649146867915988
 20
-33597135.2535070404410362
 30
0.0
  0
VERTEX
  5
105F
  8
L_GARDENROAD
 10
-6020369.3824147321283817
 20
-33595778.4579594135284424
 30
0.0
  0
VERTEX
  5
1060
  8
L_GARDENROAD
 10
-6015309.1106868200004101
 20
-33594762.3521687090396881
 30
0.0
  0
VERTEX
  5
1061
  8
L_GARDENROAD
 10
-6012441.5371032953262329
 20
-33594432.0007097870111465
 30
0.0
  0
VERTEX
  5
1062
  8
L_GARDENROAD
 10
-6012906.3167681377381086
 20
-33597475.1799346134066582
 30
0.0
  0
VERTEX
  5
1063
  8
L_GARDENROAD
 10
-6013028.396386057138443
 20
-33598524.838330902159214
 30
0.0
  0
VERTEX
  5
1064
  8
L_GARDENROAD
 10
-6012961.1021883971989155
 20
-33599967.3337292298674583
 30
0.0
  0
VERTEX
  5
1065
  8
L_GARDENROAD
 10
-6012612.9011850766837597
 20
-33601055.0708004608750343
 30
0.0
  0
VERTEX
  5
1066
  8
L_GARDENROAD
 10
-6012029.5214131847023964
 20
-33602105.2065012603998184
 30
0.0
  0
VERTEX
  5
1067
  8
L_GARDENROAD
 10
-6011559.6442961283028126
 20
-33602739.9002371579408646
 30
0.0
  0
VERTEX
  5
1068
  8
L_GARDENROAD
 10
-6010968.3364351419731975
 20
-33603284.0509659796953201
 30
0.0
  0
VERTEX
  5
1069
  8
L_GARDENROAD
 10
-6010361.6530105927959085
 20
-33603526.1283160597085953
 30
0.0
  0
VERTEX
  5
106A
  8
L_GARDENROAD
 10
-6009519.7142316363751888
 20
-33603617.3228537663817406
 30
0.0
  0
VERTEX
  5
106B
  8
L_GARDENROAD
 10
-6008396.8840627577155828
 20
-33603376.4151241928339005
 30
0.0
  0
VERTEX
  5
106C
  8
L_GARDENROAD
 10
-6007463.5914914133027196
 20
-33602984.3372523933649063
 30
0.0
  0
VERTEX
  5
106D
  8
L_GARDENROAD
 10
-6006499.6095452299341559
 20
-33602078.7376688495278358
 30
0.0
  0
VERTEX
  5
106E
  8
L_GARDENROAD
 10
-6005884.5901871528476477
 20
-33601210.6626060679554939
 30
0.0
  0
VERTEX
  5
106F
  8
L_GARDENROAD
 10
-6004532.075155533850193
 20
-33597835.7908140122890472
 30
0.0
  0
VERTEX
  5
1070
  8
L_GARDENROAD
 10
-6003627.8092842316254973
 20
-33595495.2527892887592316
 30
0.0
  0
VERTEX
  5
1071
  8
L_GARDENROAD
 10
-6003254.9169458569958806
 20
-33593720.7627225071191788
 30
0.0
  0
VERTEX
  5
1072
  8
L_GARDENROAD
 10
-6003208.260655322112143
 20
-33592029.1252797171473503
 30
0.0
  0
SEQEND
  5
1073
  8
L_GARDENROAD
  0
POLYLINE
  5
6E0
  8
L_GARDENROAD
 66
     1
 10
0.0
 20
0.0
 30
0.0
  0
VERTEX
  5
1074
  8
L_GARDENROAD
 10
-6026979.6081699952483177
 20
-33600471.3793344423174858
 30
0.0
  0
VERTEX
  5
1075
  8
L_GARDENROAD
 10
-6023291.9344435837119818
 20
-33598880.3879345282912254
 30
0.0
  0
VERTEX
  5
1076
  8
L_GARDENROAD
 10
-6019953.6029317174106836
 20
-33597885.7737410366535187
 30
0.0
  0
VERTEX
  5
1077
  8
L_GARDENROAD
 10
-6015090.5551457377150655
 20
-33596869.5342177599668503
 30
0.0
  0
VERTEX
  5
1078
  8
L_GARDENROAD
 10
-6015365.1441451031714678
 20
-33599097.2159403190016747
 30
0.0
  0
VERTEX
  5
1079
  8
L_GARDENROAD
 10
-6015314.2228495702147484
 20
-33602314.4422467797994614
 30
0.0
  0
VERTEX
  5
107A
  8
L_GARDENROAD
 10
-6015049.7293060943484306
 20
-33603794.8316081091761589
 30
0.0
  0
VERTEX
  5
107B
  8
L_GARDENROAD
 10
-6014602.9924447294324636
 20
-33604995.9168498292565346
 30
0.0
  0
VERTEX
  5
107C
  8
L_GARDENROAD
 10
-6013769.3904480254277587
 20
-33606197.2638839483261108
 30
0.0
  0
SEQEND
  5
107D
  8
L_GARDENROAD
  0
POLYLINE
  5
6EB
  8
L_GARDENROAD
 66
     1
 10
0.0
 20
0.0
 30
0.0
  0
VERTEX
  5
107E
  8
L_GARDENROAD
 10
-5956022.0810156660154462
 20
-33631520.5645120888948441
 30
0.0
  0
VERTEX
  5
107F
  8
L_GARDENROAD
 10
-5954473.9283542865887284
 20
-33630494.5173560604453087
 30
0.0
  0
VERTEX
  5
1080
  8
L_GARDENROAD
 10
-5953343.0098054623231292
 20
-33629505.9508813992142677
 30
0.0
  0
VERTEX
  5
1081
  8
L_GARDENROAD
 10
-5952439.2145664636045694
 20
-33627852.6479365304112434
 30
0.0
  0
VERTEX
  5
1082
  8
L_GARDENROAD
 10
-5951899.1847659768536687
 20
-33625685.5589297711849213
 30
0.0
  0
VERTEX
  5
1083
  8
L_GARDENROAD
 10
-5951897.4093283377587795
 20
-33623034.7754271402955055
 30
0.0
  0
VERTEX
  5
1084
  8
L_GARDENROAD
 10
-5952403.6870124861598015
 20
-33620111.7762615084648132
 30
0.0
  0
VERTEX
  5
1085
  8
L_GARDENROAD
 10
-5953463.7180581651628017
 20
-33617195.9581733271479607
 30
0.0
  0
VERTEX
  5
1086
  8
L_GARDENROAD
 10
-5955100.2081023762002587
 20
-33614211.7848151102662086
 30
0.0
  0
VERTEX
  5
1087
  8
L_GARDENROAD
 10
-5957381.3964803759008646
 20
-33611113.8975596502423286
 30
0.0
  0
VERTEX
  5
1088
  8
L_GARDENROAD
 10
-5960375.5476782536134124
 20
-33607894.6980271264910698
 30
0.0
  0
VERTEX
  5
1089
  8
L_GARDENROAD
 10
-5963544.2412288812920451
 20
-33604788.6617322564125061
 30
0.0
  0
VERTEX
  5
108A
  8
L_GARDENROAD
 10
-5966409.7525696437805891
 20
-33602045.3283405229449272
 30
0.0
  0
VERTEX
  5
108B
  8
L_GARDENROAD
 10
-5968790.3935735058039427
 20
-33600208.5709159001708031
 30
0.0
  0
VERTEX
  5
108C
  8
L_GARDENROAD
 10
-5972353.9224655032157898
 20
-33597683.7774167284369469
 30
0.0
  0
VERTEX
  5
108D
  8
L_GARDENROAD
 10
-5974704.3964719278737903
 20
-33596111.361940860748291
 30
0.0
  0
VERTEX
  5
108E
  8
L_GARDENROAD
 10
-5979663.8461943622678518
 20
-33593849.9501030668616295
 30
0.0
  0
VERTEX
  5
108F
  8
L_GARDENROAD
 10
-5983986.8373381951823831
 20
-33592676.4655696004629135
 30
0.0
  0
VERTEX
  5
1090
  8
L_GARDENROAD
 10
-5988522.7476738961413503
 20
-33592280.7010794878005981
 30
0.0
  0
VERTEX
  5
1091
  8
L_GARDENROAD
 10
-5992087.7853342378512025
 20
-33592006.4224927872419357
 30
0.0
  0
VERTEX
  5
1092
  8
L_GARDENROAD
 10
-5994909.5993526866659522
 20
-33591974.3108965083956718
 30
0.0
  0
VERTEX
  5
1093
  8
L_GARDENROAD
 10
-5997071.4886031374335289
 20
-33591972.8521666079759598
 30
0.0
  0
VERTEX
  5
1094
  8
L_GARDENROAD
 10
-5998884.5636971620842814
 20
-33592152.8786403387784958
 30
0.0
  0
VERTEX
  5
1095
  8
L_GARDENROAD
 10
-6000872.3315251162275672
 20
-33592665.0788939297199249
 30
0.0
  0
SEQEND
  5
1096
  8
L_GARDENROAD
  0
POLYLINE
  5
705
  8
L_GARDENROAD
 66
     1
 10
0.0
 20
0.0
 30
0.0
  0
VERTEX
  5
1097
  8
L_GARDENROAD
 10
-6000872.3315251162275672
 20
-33592665.0788939297199249
 30
0.0
  0
VERTEX
  5
1098
  8
L_GARDENROAD
 10
-6001025.3843721365556121
 20
-33594651.1761444881558418
 30
0.0
  0
VERTEX
  5
1099
  8
L_GARDENROAD
 10
-6001390.8539340971037745
 20
-33596667.3383089676499367
 30
0.0
  0
VERTEX
  5
109A
  8
L_GARDENROAD
 10
-6002029.4862300548702478
 20
-33598804.1494495272636414
 30
0.0
  0
VERTEX
  5
109B
  8
L_GARDENROAD
 10
-6002895.7067558662965894
 20
-33600971.0151747167110443
 30
0.0
  0
VERTEX
  5
109C
  8
L_GARDENROAD
 10
-6003875.4461642783135176
 20
-33602745.0952525436878204
 30
0.0
  0
VERTEX
  5
109D
  8
L_GARDENROAD
 10
-6005029.3890913398936391
 20
-33604126.3486406430602074
 30
0.0
  0
SEQEND
  5
109E
  8
L_GARDENROAD
  0
POLYLINE
  5
70E
  8
L_GARDENROAD
 66
     1
 10
0.0
 20
0.0
 30
0.0
  0
VERTEX
  5
109F
  8
L_GARDENROAD
 10
-6005029.3890913398936391
 20
-33604126.3486406430602074
 30
0.0
  0
VERTEX
  5
10A0
  8
L_GARDENROAD
 10
-6004689.160373973660171
 20
-33605788.0391075685620308
 30
0.0
  0
VERTEX
  5
10A1
  8
L_GARDENROAD
 10
-6003931.7394159100949764
 20
-33607472.6677156463265419
 30
0.0
  0
VERTEX
  5
10A2
  8
L_GARDENROAD
 10
-6003098.4214441850781441
 20
-33609096.9307784289121628
 30
0.0
  0
VERTEX
  5
10A3
  8
L_GARDENROAD
 10
-6001006.6292402250692248
 20
-33611809.5451530590653419
 30
0.0
  0
SEQEND
  5
10A4
  8
L_GARDENROAD
  0
POLYLINE
  5
715
  8
L_GARDENROAD
 66
     1
 10
0.0
 20
0.0
 30
0.0
  0
VERTEX
  5
10A5
  8
L_GARDENROAD
 10
-6011342.7378018833696842
 20
-33607286.4072335213422775
 30
0.0
  0
VERTEX
  5
10A6
  8
L_GARDENROAD
 10
-6010015.0962114296853542
 20
-33607045.6382563263177872
 30
0.0
  0
VERTEX
  5
10A7
  8
L_GARDENROAD
 10
-6008785.9447916271165013
 20
-33606623.5522409528493881
 30
0.0
  0
VERTEX
  5
10A8
  8
L_GARDENROAD
 10
-6007731.1190656078979373
 20
-33605989.889586329460144
 30
0.0
  0
VERTEX
  5
10A9
  8
L_GARDENROAD
 10
-6006949.3593333326280117
 20
-33605333.3859425708651543
 30
0.0
  0
VERTEX
  5
10AA
  8
L_GARDENROAD
 10
-6006698.9124211575835943
 20
-33605152.3049935922026634
 30
0.0
  0
VERTEX
  5
10AB
  8
L_GARDENROAD
 10
-6006630.9688392328098416
 20
-33605635.6848999932408333
 30
0.0
  0
VERTEX
  5
10AC
  8
L_GARDENROAD
 10
-6006404.3149186661466956
 20
-33606987.6628273278474808
 30
0.0
  0
VERTEX
  5
10AD
  8
L_GARDENROAD
 10
-6005821.1381857739761472
 20
-33608339.8817079067230225
 30
0.0
  0
VERTEX
  5
10AE
  8
L_GARDENROAD
 10
-6004866.5530775608494878
 20
-33610115.2687622234225273
 30
0.0
  0
SEQEND
  5
10AF
  8
L_GARDENROAD
  0
POLYLINE
  5
721
  8
L_GARDENROAD
 66
     1
 10
0.0
 20
0.0
 30
0.0
  0
VERTEX
  5
10B0
  8
L_GARDENROAD
 10
-6034133.8821831680834293
 20
-33579698.2666107192635536
 30
0.0
  0
VERTEX
  5
10B1
  8
L_GARDENROAD
 10
-6037472.2084634518250823
 20
-33580692.8754961863160133
 30
0.0
  0
VERTEX
  5
10B2
  8
L_GARDENROAD
 10
-6039262.8333454988896847
 20
-33581326.0346120595932007
 30
0.0
  0
VERTEX
  5
10B3
  8
L_GARDENROAD
 10
-6042654.8709109723567963
 20
-33583219.3042046129703522
 30
0.0
  0
VERTEX
  5
10B4
  8
L_GARDENROAD
 10
-6045007.440166019834578
 20
-33584750.7791760265827179
 30
0.0
  0
VERTEX
  5
10B5
  8
L_GARDENROAD
 10
-6046608.9564311504364014
 20
-33586161.9311056211590767
 30
0.0
  0
VERTEX
  5
10B6
  8
L_GARDENROAD
 10
-6048476.5439666211605072
 20
-33588418.7361425384879112
 30
0.0
  0
VERTEX
  5
10B7
  8
L_GARDENROAD
 10
-6049752.3341847229748964
 20
-33590494.6934447512030602
 30
0.0
  0
SEQEND
  5
10B8
  8
L_GARDENROAD
  0
POLYLINE
  5
72B
  8
L_GARDENROAD
 66
     1
 10
0.0
 20
0.0
 30
0.0
  0
VERTEX
  5
10B9
  8
L_GARDENROAD
 10
-6006103.7967938333749771
 20
-33588840.1851960197091103
 30
0.0
  0
VERTEX
  5
10BA
  8
L_GARDENROAD
 10
-6007134.5822372315451503
 20
-33587578.2888032868504524
 30
0.0
  0
VERTEX
  5
10BB
  8
L_GARDENROAD
 10
-6008802.6728449258953333
 20
-33586489.6595271304249763
 30
0.0
  0
VERTEX
  5
10BC
  8
L_GARDENROAD
 10
-6011054.9592690328136086
 20
-33585559.228745698928833
 30
0.0
  0
VERTEX
  5
10BD
  8
L_GARDENROAD
 10
-6013170.7611767528578639
 20
-33584711.9627786427736282
 30
0.0
  0
VERTEX
  5
10BE
  8
L_GARDENROAD
 10
-6016037.2119457684457302
 20
-33583388.4062405899167061
 30
0.0
  0
VERTEX
  5
10BF
  8
L_GARDENROAD
 10
-6018516.6495704315602779
 20
-33581846.1001837030053139
 30
0.0
  0
SEQEND
  5
10C0
  8
L_GARDENROAD
  0
POLYLINE
  5
734
  8
L_GARDENROAD
 66
     1
 10
0.0
 20
0.0
 30
0.0
  0
VERTEX
  5
10C1
  8
L_GARDENROAD
 10
-6018057.2543793683871627
 20
-33586755.272221677005291
 30
0.0
  0
VERTEX
  5
10C2
  8
L_GARDENROAD
 10
-6020953.9450277574360371
 20
-33585280.6517466530203819
 30
0.0
  0
VERTEX
  5
10C3
  8
L_GARDENROAD
 10
-6023281.4713037069886923
 20
-33583443.9156363010406494
 30
0.0
  0
SEQEND
  5
10C4
  8
L_GARDENROAD
  0
POLYLINE
  5
739
  8
L_GARDENROAD
 66
     1
 10
0.0
 20
0.0
 30
0.0
  0
VERTEX
  5
10C5
  8
L_GARDENROAD
 10
-6031849.5247107641771436
 20
-33578076.1173285096883774
 30
0.0
  0
VERTEX
  5
10C6
  8
L_GARDENROAD
 10
-6030689.4458691189065576
 20
-33578832.1140771582722664
 30
0.0
  0
VERTEX
  5
10C7
  8
L_GARDENROAD
 10
-6028088.677992781624198
 20
-33580427.3705088421702385
 30
0.0
  0
SEQEND
  5
10C8
  8
L_GARDENROAD
  0
POLYLINE
  5
73E
  8
L_GARDENROAD
 66
     1
 10
0.0
 20
0.0
 30
0.0
  0
VERTEX
  5
10C9
  8
L_GARDENROAD
 10
-6034665.4209752874448895
 20
-33563751.6594404876232147
 30
0.0
  0
VERTEX
  5
10CA
  8
L_GARDENROAD
 10
-6034540.4209109442308545
 20
-33563989.6352888494729996
 30
0.0
  0
SEQEND
  5
10CB
  8
L_GARDENROAD
  0
POLYLINE
  5
742
  8
L_GARDENROAD
 66
     1
 10
0.0
 20
0.0
 30
0.0
  0
VERTEX
  5
10CC
  8
L_GARDENROAD
 10
-6047631.6870993599295616
 20
-33573073.4565678089857101
 30
0.0
  0
VERTEX
  5
10CD
  8
L_GARDENROAD
 10
-6046054.1372106801718473
 20
-33573437.0305556207895279
 30
0.0
  0
VERTEX
  5
10CE
  8
L_GARDENROAD
 10
-6044218.4315580073744059
 20
-33573438.2793533131480217
 30
0.0
  0
VERTEX
  5
10CF
  8
L_GARDENROAD
 10
-6042594.8340213736519217
 20
-33573016.4662859886884689
 30
0.0
  0
VERTEX
  5
10D0
  8
L_GARDENROAD
 10
-6041069.5408688616007566
 20
-33572141.4604589268565178
 30
0.0
  0
SEQEND
  5
10D1
  8
L_GARDENROAD
  0
POLYLINE
  5
749
  8
L_GARDENROAD
 66
     1
 10
0.0
 20
0.0
 30
0.0
  0
VERTEX
  5
10D2
  8
L_GARDENROAD
 10
-6034540.4209109442308545
 20
-33563989.6352888494729996
 30
0.0
  0
VERTEX
  5
10D3
  8
L_GARDENROAD
 10
-6022657.6120293568819761
 20
-33569533.3816991969943047
 30
0.0
  0
SEQEND
  5
10D4
  8
L_GARDENROAD
  0
POLYLINE
  5
74D
  8
L_GARDENROAD
 66
     1
 10
0.0
 20
0.0
 30
0.0
  0
VERTEX
  5
10D5
  8
L_GARDENROAD
 10
-6024549.1908402126282454
 20
-33573625.3343452364206314
 30
0.0
  0
VERTEX
  5
10D6
  8
L_GARDENROAD
 10
-6027180.4839941216632724
 20
-33572301.9336060285568237
 30
0.0
  0
VERTEX
  5
10D7
  8
L_GARDENROAD
 10
-6030881.0325811365619302
 20
-33570524.6808367371559143
 30
0.0
  0
VERTEX
  5
10D8
  8
L_GARDENROAD
 10
-6034073.2858622157946229
 20
-33568657.1465560868382454
 30
0.0
  0
VERTEX
  5
10D9
  8
L_GARDENROAD
 10
-6035445.6970949014648795
 20
-33567810.3800101205706596
 30
0.0
  0
VERTEX
  5
10DA
  8
L_GARDENROAD
 10
-6035567.5173768354579806
 20
-33568474.8815354034304619
 30
0.0
  0
VERTEX
  5
10DB
  8
L_GARDENROAD
 10
-6035863.9080777559429407
 20
-33569290.30636166036129
 30
0.0
  0
VERTEX
  5
10DC
  8
L_GARDENROAD
 10
-6036357.3745599528774619
 20
-33569886.5865845680236816
 30
0.0
  0
VERTEX
  5
10DD
  8
L_GARDENROAD
 10
-6036828.007478610612452
 20
-33570369.6008824706077576
 30
0.0
  0
VERTEX
  5
10DE
  8
L_GARDENROAD
 10
-6037905.649317791685462
 20
-33571093.8697371110320091
 30
0.0
  0
VERTEX
  5
10DF
  8
L_GARDENROAD
 10
-6038785.9179621720686555
 20
-33571599.2618691772222519
 30
0.0
  0
SEQEND
  5
10E0
  8
L_GARDENROAD
  0
POLYLINE
  5
75A
  8
L_GARDENROAD
 66
     1
 10
0.0
 20
0.0
 30
0.0
  0
VERTEX
  5
10E1
  8
L_GARDENROAD
 10
-6032630.4943493362516165
 20
-33577569.5968973189592361
 30
0.0
  0
VERTEX
  5
10E2
  8
L_GARDENROAD
 10
-6031849.5247107641771436
 20
-33578076.1173285096883774
 30
0.0
  0
SEQEND
  5
10E3
  8
L_GARDENROAD
  0
POLYLINE
  5
75E
  8
L_ADMIN_TOWN
 66
     1
 10
0.0
 20
0.0
 30
0.0
  0
VERTEX
  5
10E4
  8
L_ADMIN_TOWN
 10
-6022937.6391182290390134
 20
-33512633.3681274615228176
 30
0.0
  0
VERTEX
  5
10E5
  8
L_ADMIN_TOWN
 10
-6025763.2839818950742483
 20
-33518287.8130238614976406
 30
0.0
  0
VERTEX
  5
10E6
  8
L_ADMIN_TOWN
 10
-6048345.9619220625609159
 20
-33563738.5823261290788651
 30
0.0
  0
SEQEND
  5
10E7
  8
L_ADMIN_TOWN
  0
POLYLINE
  5
763
  8
L_ADMIN_TOWN
 66
     1
 10
0.0
 20
0.0
 30
0.0
  0
VERTEX
  5
10E8
  8
L_ADMIN_TOWN
 10
-5956839.7702141227200627
 20
-33380255.6386838294565678
 30
0.0
  0
VERTEX
  5
10E9
  8
L_ADMIN_TOWN
 10
-5961021.2673475183546543
 20
-33394457.9294040091335773
 30
0.0
  0
VERTEX
  5
10EA
  8
L_ADMIN_TOWN
 10
-5969732.0188240921124816
 20
-33421057.3701580502092838
 30
0.0
  0
VERTEX
  5
10EB
  8
L_ADMIN_TOWN
 10
-5990931.3269237875938416
 20
-33485626.8136620000004768
 30
0.0
  0
VERTEX
  5
10EC
  8
L_ADMIN_TOWN
 10
-6008338.4077384928241372
 20
-33483236.2173986211419106
 30
0.0
  0
VERTEX
  5
10ED
  8
L_ADMIN_TOWN
 10
-6022937.6391182290390134
 20
-33512633.3681274615228176
 30
0.0
  0
SEQEND
  5
10EE
  8
L_ADMIN_TOWN
  0
POLYLINE
  5
76B
  8
L_ADMIN_TOWN
 66
     1
 10
0.0
 20
0.0
 30
0.0
  0
VERTEX
  5
10EF
  8
L_ADMIN_TOWN
 10
-6055463.3869890095666051
 20
-33578060.0571963265538216
 30
0.0
  0
VERTEX
  5
10F0
  8
L_ADMIN_TOWN
 10
-6062740.2969365827739239
 20
-33592623.0842944979667664
 30
0.0
  0
VERTEX
  5
10F1
  8
L_ADMIN_TOWN
 10
-6089628.7520567541942
 20
-33644427.1638956069946289
 30
0.0
  0
VERTEX
  5
10F2
  8
L_ADMIN_TOWN
 10
-6096639.5547418473288417
 20
-33657940.6034295484423637
 30
0.0
  0
VERTEX
  5
10F3
  8
L_ADMIN_TOWN
 10
-6090626.6842532865703106
 20
-33661645.2521340623497963
 30
0.0
  0
VERTEX
  5
10F4
  8
L_ADMIN_TOWN
 10
-6114213.5779565144330263
 20
-33721335.8993277922272682
 30
0.0
  0
VERTEX
  5
10F5
  8
L_ADMIN_TOWN
 10
-6116523.561621155589819
 20
-33727051.2435681372880936
 30
0.0
  0
VERTEX
  5
10F6
  8
L_ADMIN_TOWN
 10
-6127587.1741339424625039
 20
-33754374.6431865096092224
 30
0.0
  0
SEQEND
  5
10F7
  8
L_ADMIN_TOWN
  0
POLYLINE
  5
775
  8
L_ADMIN_TOWN
 66
     1
 10
0.0
 20
0.0
 30
0.0
  0
VERTEX
  5
10F8
  8
L_ADMIN_TOWN
 10
-6048345.9644922101870179
 20
-33563742.3583701997995377
 30
0.0
  0
VERTEX
  5
10F9
  8
L_ADMIN_TOWN
 10
-6055463.3869890095666051
 20
-33578060.0571963265538216
 30
0.0
  0
SEQEND
  5
10FA
  8
L_ADMIN_TOWN
  0
POLYLINE
  5
779
  8
L_GEOMETRY
 66
     1
 10
0.0
 20
0.0
 30
0.0
  0
VERTEX
  5
10FB
  8
L_GEOMETRY
 10
-5952734.4935516361147165
 20
-33525103.5220372416079044
 30
0.0
  0
VERTEX
  5
10FC
  8
L_GEOMETRY
 10
-5951313.8266277555376291
 20
-33521857.1639133393764496
 30
0.0
  0
SEQEND
  5
10FD
  8
L_GEOMETRY
  0
POLYLINE
  5
77D
  8
L_GEOMETRY
 66
     1
 10
0.0
 20
0.0
 30
0.0
  0
VERTEX
  5
10FE
  8
L_GEOMETRY
 10
-5954554.4564390676096082
 20
-33524264.0436506383121014
 30
0.0
  0
VERTEX
  5
10FF
  8
L_GEOMETRY
 10
-5953126.2186451628804207
 20
-33521040.3465334288775921
 30
0.0
  0
SEQEND
  5
1100
  8
L_GEOMETRY
  0
POLYLINE
  5
781
  8
L_GEOMETRY
 66
     1
 10
0.0
 20
0.0
 30
0.0
  0
VERTEX
  5
1101
  8
L_GEOMETRY
 10
-5955464.4554685270413756
 20
-33523870.7358962781727314
 30
0.0
  0
VERTEX
  5
1102
  8
L_GEOMETRY
 10
-5954036.2022268129512668
 20
-33520624.3832836486399174
 30
0.0
  0
SEQEND
  5
1103
  8
L_GEOMETRY
  0
POLYLINE
  5
785
  8
L_GEOMETRY
 66
     1
 10
0.0
 20
0.0
 30
0.0
  0
VERTEX
  5
1104
  8
L_GEOMETRY
 10
-5949056.5481400974094868
 20
-33526646.5692453011870384
 30
0.0
  0
VERTEX
  5
1105
  8
L_GEOMETRY
 10
-5947628.3321803323924541
 20
-33523453.0787769705057144
 30
0.0
  0
SEQEND
  5
1106
  8
L_GEOMETRY
  0
POLYLINE
  5
789
  8
L_GEOMETRY
 66
     1
 10
0.0
 20
0.0
 30
0.0
  0
VERTEX
  5
1107
  8
L_GEOMETRY
 10
-5950868.9615715993568301
 20
-33525859.9598525911569595
 30
0.0
  0
VERTEX
  5
1108
  8
L_GEOMETRY
 10
-5949471.0719860978424549
 20
-33522643.7937160395085812
 30
0.0
  0
SEQEND
  5
1109
  8
L_GEOMETRY
  0
POLYLINE
  5
78D
  8
L_GEOMETRY
 66
     1
 10
0.0
 20
0.0
 30
0.0
  0
VERTEX
  5
110A
  8
L_GEOMETRY
 10
-5953598.964454123750329
 20
-33524687.5893235206604004
 30
0.0
  0
VERTEX
  5
110B
  8
L_GEOMETRY
 10
-5952216.2198028676211834
 20
-33521433.6540498398244381
 30
0.0
  0
SEQEND
  5
110C
  8
L_GEOMETRY
  0
POLYLINE
  5
791
  8
L_GEOMETRY
 66
     1
 10
0.0
 20
0.0
 30
0.0
  0
VERTEX
  5
110D
  8
L_GEOMETRY
 10
-5949966.5678824922069907
 20
-33526283.4695744700729847
 30
0.0
  0
VERTEX
  5
110E
  8
L_GEOMETRY
 10
-5948538.3314318060874939
 20
-33523059.7717307396233082
 30
0.0
  0
SEQEND
  5
110F
  8
L_GEOMETRY
  0
POLYLINE
  5
795
  8
L_GEOMETRY
 66
     1
 10
0.0
 20
0.0
 30
0.0
  0
VERTEX
  5
1110
  8
L_GEOMETRY
 10
-5951832.0595624139532447
 20
-33525466.616912018507719
 30
0.0
  0
VERTEX
  5
1111
  8
L_GEOMETRY
 10
-5950381.0913012847304344
 20
-33522280.6940006092190742
 30
0.0
  0
SEQEND
  5
1112
  8
L_GEOMETRY
  0
POLYLINE
  5
799
  8
L_GEOMETRY
 66
     1
 10
0.0
 20
0.0
 30
0.0
  0
VERTEX
  5
1113
  8
L_GEOMETRY
 10
-5931654.286588947288692
 20
-33536407.6835236214101315
 30
0.0
  0
VERTEX
  5
1114
  8
L_GEOMETRY
 10
-5936216.2900051837787032
 20
-33529691.0132195390760899
 30
0.0
  0
SEQEND
  5
1115
  8
L_GEOMETRY
  0
POLYLINE
  5
79D
  8
L_GEOMETRY
 66
     1
 10
0.0
 20
0.0
 30
0.0
  0
VERTEX
  5
1116
  8
L_GEOMETRY
 10
-5931168.1272193649783731
 20
-33535380.9519619606435299
 30
0.0
  0
VERTEX
  5
1117
  8
L_GEOMETRY
 10
-5935631.9222408719360828
 20
-33529268.4981336295604706
 30
0.0
  0
SEQEND
  5
1118
  8
L_GEOMETRY
  0
POLYLINE
  5
7A1
  8
L_GEOMETRY
 66
     1
 10
0.0
 20
0.0
 30
0.0
  0
VERTEX
  5
1119
  8
L_GEOMETRY
 10
-5930697.2045414727181196
 20
-33534452.3846798203885555
 30
0.0
  0
VERTEX
  5
111A
  8
L_GEOMETRY
 10
-5934865.4666850147768855
 20
-33528793.2414437681436539
 30
0.0
  0
SEQEND
  5
111B
  8
L_GEOMETRY
  0
POLYLINE
  5
7A5
  8
L_GEOMETRY
 66
     1
 10
0.0
 20
0.0
 30
0.0
  0
VERTEX
  5
111C
  8
L_GEOMETRY
 10
-5956632.1617353325709701
 20
-33511862.4590685218572617
 30
0.0
  0
VERTEX
  5
111D
  8
L_GEOMETRY
 10
-5958060.4550321940332651
 20
-33515169.2263448685407639
 30
0.0
  0
SEQEND
  5
111E
  8
L_GEOMETRY
  0
POLYLINE
  5
7A9
  8
L_GEOMETRY
 66
     1
 10
0.0
 20
0.0
 30
0.0
  0
VERTEX
  5
111F
  8
L_GEOMETRY
 10
-5961220.0615967232733965
 20
-33509873.2371671609580517
 30
0.0
  0
VERTEX
  5
1120
  8
L_GEOMETRY
 10
-5962648.3360172361135483
 20
-33513149.7961971201002598
 30
0.0
  0
SEQEND
  5
1121
  8
L_GEOMETRY
  0
POLYLINE
  5
7AD
  8
L_GEOMETRY
 66
     1
 10
0.0
 20
0.0
 30
0.0
  0
VERTEX
  5
1122
  8
L_GEOMETRY
 10
-5962130.0385891869664192
 20
-33509449.7211996987462044
 30
0.0
  0
VERTEX
  5
1123
  8
L_GEOMETRY
 10
-5963361.1559355091303587
 20
-33512824.5868821702897549
 30
0.0
  0
SEQEND
  5
1124
  8
L_GEOMETRY
  0
POLYLINE
  5
7B1
  8
L_GEOMETRY
 66
     1
 10
0.0
 20
0.0
 30
0.0
  0
VERTEX
  5
1125
  8
L_GEOMETRY
 10
-5959407.6523417690768838
 20
-33510659.8486969396471977
 30
0.0
  0
VERTEX
  5
1126
  8
L_GEOMETRY
 10
-5960828.360972692258656
 20
-33513966.6206199489533901
 30
0.0
  0
SEQEND
  5
1127
  8
L_GEOMETRY
  0
POLYLINE
  5
7B5
  8
L_GEOMETRY
 66
     1
 10
0.0
 20
0.0
 30
0.0
  0
VERTEX
  5
1128
  8
L_GEOMETRY
 10
-5960310.0845176428556442
 20
-33510296.7530418485403061
 30
0.0
  0
VERTEX
  5
1129
  8
L_GEOMETRY
 10
-5961692.8658792320638895
 20
-33513603.5502700693905354
 30
0.0
  0
SEQEND
  5
112A
  8
L_GEOMETRY
  0
POLYLINE
  5
7B9
  8
L_GEOMETRY
 66
     1
 10
0.0
 20
0.0
 30
0.0
  0
VERTEX
  5
112B
  8
L_GEOMETRY
 10
-5963062.8125518187880516
 20
-33509086.6049065701663494
 30
0.0
  0
VERTEX
  5
112C
  8
L_GEOMETRY
 10
-5964460.7505617067217827
 20
-33512370.7358908802270889
 30
0.0
  0
SEQEND
  5
112D
  8
L_GEOMETRY
  0
POLYLINE
  5
7BD
  8
L_GEOMETRY
 66
     1
 10
0.0
 20
0.0
 30
0.0
  0
VERTEX
  5
112E
  8
L_GEOMETRY
 10
-5958474.9135076710954309
 20
-33511075.8277631886303425
 30
0.0
  0
VERTEX
  5
112F
  8
L_GEOMETRY
 10
-5959872.870394011028111
 20
-33514390.1669761687517166
 30
0.0
  0
SEQEND
  5
1130
  8
L_GEOMETRY
  0
POLYLINE
  5
7C1
  8
L_GEOMETRY
 66
     1
 10
0.0
 20
0.0
 30
0.0
  0
VERTEX
  5
1131
  8
L_GEOMETRY
 10
-5957564.9159226436167955
 20
-33511469.1358361802995205
 30
0.0
  0
VERTEX
  5
1132
  8
L_GEOMETRY
 10
-5958962.8522759815678
 20
-33514753.2676716484129429
 30
0.0
  0
SEQEND
  5
1133
  8
L_GEOMETRY
  0
POLYLINE
  5
7C5
  8
L_GEOMETRY
 66
     1
 10
0.0
 20
0.0
 30
0.0
  0
VERTEX
  5
1134
  8
L_GEOMETRY
 10
-6015307.8801543349400163
 20
-33514503.8514519408345222
 30
0.0
  0
VERTEX
  5
1135
  8
L_GEOMETRY
 10
-6011740.6313801817595959
 20
-33511462.8565891198813915
 30
0.0
  0
SEQEND
  5
1136
  8
L_GEOMETRY
  0
POLYLINE
  5
7C9
  8
L_GEOMETRY
 66
     1
 10
0.0
 20
0.0
 30
0.0
  0
VERTEX
  5
1137
  8
L_GEOMETRY
 10
-6017217.8587960880249739
 20
-33512184.1301450990140438
 30
0.0
  0
VERTEX
  5
1138
  8
L_GEOMETRY
 10
-6013802.4021791974082589
 20
-33509263.8634461984038353
 30
0.0
  0
SEQEND
  5
1139
  8
L_GEOMETRY
  0
POLYLINE
  5
7CD
  8
L_GEOMETRY
 66
     1
 10
0.0
 20
0.0
 30
0.0
  0
VERTEX
  5
113A
  8
L_GEOMETRY
 10
-6014004.1894982876256108
 20
-33516007.5586381182074547
 30
0.0
  0
VERTEX
  5
113B
  8
L_GEOMETRY
 10
-6010421.7899829726666212
 20
-33512996.7810416482388973
 30
0.0
  0
SEQEND
  5
113C
  8
L_GEOMETRY
  0
POLYLINE
  5
7D1
  8
L_GEOMETRY
 66
     1
 10
0.0
 20
0.0
 30
0.0
  0
VERTEX
  5
113D
  8
L_GEOMETRY
 10
-6014640.8613048177212477
 20
-33515251.9393985792994499
 30
0.0
  0
VERTEX
  5
113E
  8
L_GEOMETRY
 10
-6011103.9800341511145234
 20
-33512248.6831460110843182
 30
0.0
  0
SEQEND
  5
113F
  8
L_GEOMETRY
  0
POLYLINE
  5
7D5
  8
L_GEOMETRY
 66
     1
 10
0.0
 20
0.0
 30
0.0
  0
VERTEX
  5
1140
  8
L_GEOMETRY
 10
-6015944.5312913078814745
 20
-33513718.0245955288410187
 30
0.0
  0
VERTEX
  5
1141
  8
L_GEOMETRY
 10
-6012430.4475873317569494
 20
-33510775.1684959605336189
 30
0.0
  0
SEQEND
  5
1142
  8
L_GEOMETRY
  0
POLYLINE
  5
7D9
  8
L_GEOMETRY
 66
     1
 10
0.0
 20
0.0
 30
0.0
  0
VERTEX
  5
1143
  8
L_GEOMETRY
 10
-6013367.5380277261137962
 20
-33516793.3853515200316906
 30
0.0
  0
VERTEX
  5
1144
  8
L_GEOMETRY
 10
-6009785.117982673458755
 20
-33513752.3999816812574863
 30
0.0
  0
SEQEND
  5
1145
  8
L_GEOMETRY
  0
POLYLINE
  5
7DD
  8
L_GEOMETRY
 66
     1
 10
0.0
 20
0.0
 30
0.0
  0
VERTEX
  5
1146
  8
L_GEOMETRY
 10
-6016581.20276855584234
 20
-33512962.4052129089832306
 30
0.0
  0
VERTEX
  5
1147
  8
L_GEOMETRY
 10
-6013089.8961098436266184
 20
-33510049.741482388228178
 30
0.0
  0
SEQEND
  5
1148
  8
L_GEOMETRY
  0
POLYLINE
  5
7E1
  8
L_GEOMETRY
 66
     1
 10
0.0
 20
0.0
 30
0.0
  0
VERTEX
  5
1149
  8
L_GEOMETRY
 10
-6010814.7240988714620471
 20
-33589259.9171403497457504
 30
0.0
  0
VERTEX
  5
114A
  8
L_GEOMETRY
 10
-6010990.9394087987020612
 20
-33591842.6139611378312111
 30
0.0
  0
SEQEND
  5
114B
  8
L_GEOMETRY
  0
POLYLINE
  5
7E5
  8
L_GEOMETRY
 66
     1
 10
0.0
 20
0.0
 30
0.0
  0
VERTEX
  5
114C
  8
L_GEOMETRY
 10
-6002751.7074772603809834
 20
-33578699.9883757829666138
 30
0.0
  0
VERTEX
  5
114D
  8
L_GEOMETRY
 10
-6004620.5427597379311919
 20
-33582822.1689325571060181
 30
0.0
  0
SEQEND
  5
114E
  8
L_GEOMETRY
  0
POLYLINE
  5
7E9
  8
L_GEOMETRY
 66
     1
 10
0.0
 20
0.0
 30
0.0
  0
VERTEX
  5
114F
  8
L_GEOMETRY
 10
-6005777.9395813122391701
 20
-33578093.7761070802807808
 30
0.0
  0
VERTEX
  5
1150
  8
L_GEOMETRY
 10
-6007350.4948183810338378
 20
-33581559.1241776794195175
 30
0.0
  0
SEQEND
  5
1151
  8
L_GEOMETRY
  0
POLYLINE
  5
7ED
  8
L_GEOMETRY
 66
     1
 10
0.0
 20
0.0
 30
0.0
  0
VERTEX
  5
1152
  8
L_GEOMETRY
 10
-6014539.2665519593283534
 20
-33578087.8504277169704437
 30
0.0
  0
VERTEX
  5
1153
  8
L_GEOMETRY
 10
-6014584.8617251617833972
 20
-33578208.6530677005648613
 30
0.0
  0
SEQEND
  5
1154
  8
L_GEOMETRY
  0
POLYLINE
  5
7F1
  8
L_GEOMETRY
 66
     1
 10
0.0
 20
0.0
 30
0.0
  0
VERTEX
  5
1155
  8
L_GEOMETRY
 10
-6001849.3312888005748391
 20
-33579153.7235193774104118
 30
0.0
  0
VERTEX
  5
1156
  8
L_GEOMETRY
 10
-6003718.1458378210663795
 20
-33583245.695902019739151
 30
0.0
  0
SEQEND
  5
1157
  8
L_GEOMETRY
  0
POLYLINE
  5
7F5
  8
L_GEOMETRY
 66
     1
 10
0.0
 20
0.0
 30
0.0
  0
VERTEX
  5
1158
  8
L_GEOMETRY
 10
-6007962.5821499694138765
 20
-33578092.2993436381220818
 30
0.0
  0
VERTEX
  5
1159
  8
L_GEOMETRY
 10
-6009162.8734554639086127
 20
-33580712.0642764568328857
 30
0.0
  0
SEQEND
  5
115A
  8
L_GEOMETRY
  0
POLYLINE
  5
7F9
  8
L_GEOMETRY
 66
     1
 10
0.0
 20
0.0
 30
0.0
  0
VERTEX
  5
115B
  8
L_GEOMETRY
 10
-6013462.1163963796570897
 20
-33578088.5794191211462021
 30
0.0
  0
VERTEX
  5
115C
  8
L_GEOMETRY
 10
-6013682.4861884787678719
 20
-33578662.389414370059967
 30
0.0
  0
SEQEND
  5
115D
  8
L_GEOMETRY
  0
POLYLINE
  5
7FD
  8
L_GEOMETRY
 66
     1
 10
0.0
 20
0.0
 30
0.0
  0
VERTEX
  5
115E
  8
L_GEOMETRY
 10
-6009039.7323051206767559
 20
-33578091.5710192695260048
 30
0.0
  0
VERTEX
  5
115F
  8
L_GEOMETRY
 10
-6010072.8554278993979096
 20
-33580288.5316222682595253
 30
0.0
  0
SEQEND
  5
1160
  8
L_GEOMETRY
  0
POLYLINE
  5
801
  8
L_GEOMETRY
 66
     1
 10
0.0
 20
0.0
 30
0.0
  0
VERTEX
  5
1161
  8
L_GEOMETRY
 10
-6006855.0897362977266312
 20
-33578093.0480475574731827
 30
0.0
  0
VERTEX
  5
1162
  8
L_GEOMETRY
 10
-6008252.8913964238017797
 20
-33581135.5968386083841324
 30
0.0
  0
SEQEND
  5
1163
  8
L_GEOMETRY
  0
POLYLINE
  5
805
  8
L_GEOMETRY
 66
     1
 10
0.0
 20
0.0
 30
0.0
  0
VERTEX
  5
1164
  8
L_GEOMETRY
 10
-5999119.3384040361270308
 20
-33580356.3498667404055595
 30
0.0
  0
VERTEX
  5
1165
  8
L_GEOMETRY
 10
-6001018.5350268231704831
 20
-33584508.7190438136458397
 30
0.0
  0
SEQEND
  5
1166
  8
L_GEOMETRY
  0
POLYLINE
  5
809
  8
L_GEOMETRY
 66
     1
 10
0.0
 20
0.0
 30
0.0
  0
VERTEX
  5
1167
  8
L_GEOMETRY
 10
-6000029.3412134628742933
 20
-33579963.0266004279255867
 30
0.0
  0
VERTEX
  5
1168
  8
L_GEOMETRY
 10
-6001920.9118020515888929
 20
-33584054.983989417552948
 30
0.0
  0
SEQEND
  5
1169
  8
L_GEOMETRY
  0
POLYLINE
  5
80D
  8
L_GEOMETRY
 66
     1
 10
0.0
 20
0.0
 30
0.0
  0
VERTEX
  5
116A
  8
L_GEOMETRY
 10
-6000939.3286425322294235
 20
-33579547.046971932053566
 30
0.0
  0
VERTEX
  5
116B
  8
L_GEOMETRY
 10
-6002808.1428543627262115
 20
-33583639.0195429176092148
 30
0.0
  0
SEQEND
  5
116C
  8
L_GEOMETRY
  0
POLYLINE
  5
811
  8
L_GEOMETRY
 66
     1
 10
0.0
 20
0.0
 30
0.0
  0
VERTEX
  5
116D
  8
L_GEOMETRY
 10
-6012331.8672883100807667
 20
-33578089.344205766916275
 30
0.0
  0
VERTEX
  5
116E
  8
L_GEOMETRY
 10
-6012772.4841139279305935
 20
-33579055.7140785381197929
 30
0.0
  0
SEQEND
  5
116F
  8
L_GEOMETRY
  0
POLYLINE
  5
815
  8
L_GEOMETRY
 66
     1
 10
0.0
 20
0.0
 30
0.0
  0
VERTEX
  5
1170
  8
L_GEOMETRY
 10
-6035156.8308264017105103
 20
-33578073.8717598468065262
 30
0.0
  0
VERTEX
  5
1171
  8
L_GEOMETRY
 10
-6035574.4267095467075706
 20
-33578647.5472662895917892
 30
0.0
  0
SEQEND
  5
1172
  8
L_GEOMETRY
  0
POLYLINE
  5
819
  8
L_GEOMETRY
 66
     1
 10
0.0
 20
0.0
 30
0.0
  0
VERTEX
  5
1173
  8
L_GEOMETRY
 10
-6034375.517684256657958
 20
-33578074.4023621082305908
 30
0.0
  0
VERTEX
  5
1174
  8
L_GEOMETRY
 10
-6034990.6254259124398232
 20
-33579070.8610200509428978
 30
0.0
  0
SEQEND
  5
1175
  8
L_GEOMETRY
  0
POLYLINE
  5
81D
  8
L_GEOMETRY
 66
     1
 10
0.0
 20
0.0
 30
0.0
  0
VERTEX
  5
1176
  8
L_GEOMETRY
 10
-6026079.358134257607162
 20
-33581689.9329840093851089
 30
0.0
  0
VERTEX
  5
1177
  8
L_GEOMETRY
 10
-6027355.9002726515755057
 20
-33584883.6028717905282974
 30
0.0
  0
SEQEND
  5
1178
  8
L_GEOMETRY
  0
POLYLINE
  5
821
  8
L_GEOMETRY
 66
     1
 10
0.0
 20
0.0
 30
0.0
  0
VERTEX
  5
1179
  8
L_GEOMETRY
 10
-6023455.8574857832863927
 20
-33583322.9639330729842186
 30
0.0
  0
VERTEX
  5
117A
  8
L_GEOMETRY
 10
-6024534.8207659497857094
 20
-33585995.6736763194203377
 30
0.0
  0
SEQEND
  5
117B
  8
L_GEOMETRY
  0
POLYLINE
  5
825
  8
L_GEOMETRY
 66
     1
 10
0.0
 20
0.0
 30
0.0
  0
VERTEX
  5
117C
  8
L_GEOMETRY
 10
-6025222.5576843041926622
 20
-33582234.2647191807627678
 30
0.0
  0
VERTEX
  5
117D
  8
L_GEOMETRY
 10
-6026400.3847378687933087
 20
-33585276.9597976580262184
 30
0.0
  0
SEQEND
  5
117E
  8
L_GEOMETRY
  0
POLYLINE
  5
829
  8
L_GEOMETRY
 66
     1
 10
0.0
 20
0.0
 30
0.0
  0
VERTEX
  5
117F
  8
L_GEOMETRY
 10
-6024358.1715607857331634
 20
-33582778.6015138328075409
 30
0.0
  0
VERTEX
  5
1180
  8
L_GEOMETRY
 10
-6025467.5848678471520543
 20
-33585609.8844709470868111
 30
0.0
  0
SEQEND
  5
1181
  8
L_GEOMETRY
  0
POLYLINE
  5
82D
  8
L_GEOMETRY
 66
     1
 10
0.0
 20
0.0
 30
0.0
  0
VERTEX
  5
1182
  8
L_GEOMETRY
 10
-6026966.5263612270355225
 20
-33581183.341037392616272
 30
0.0
  0
VERTEX
  5
1183
  8
L_GEOMETRY
 10
-6028265.9227972738444805
 20
-33584520.4850781708955765
 30
0.0
  0
SEQEND
  5
1184
  8
L_GEOMETRY
  0
POLYLINE
  5
831
  8
L_GEOMETRY
 66
     1
 10
0.0
 20
0.0
 30
0.0
  0
VERTEX
  5
1185
  8
L_GEOMETRY
 10
-6008804.587838645093143
 20
-33589321.6933500394225121
 30
0.0
  0
VERTEX
  5
1186
  8
L_GEOMETRY
 10
-6009026.3364514363929629
 20
-33591934.5677933692932129
 30
0.0
  0
SEQEND
  5
1187
  8
L_GEOMETRY
  0
POLYLINE
  5
835
  8
L_GEOMETRY
 66
     1
 10
0.0
 20
0.0
 30
0.0
  0
VERTEX
  5
1188
  8
L_GEOMETRY
 10
-6013856.0895139751955867
 20
-33588593.2751498594880104
 30
0.0
  0
VERTEX
  5
1189
  8
L_GEOMETRY
 10
-6014130.9437345638871193
 20
-33591213.6656248196959496
 30
0.0
  0
SEQEND
  5
118A
  8
L_GEOMETRY
  0
POLYLINE
  5
839
  8
L_GEOMETRY
 66
     1
 10
0.0
 20
0.0
 30
0.0
  0
VERTEX
  5
118B
  8
L_GEOMETRY
 10
-6015554.8694247528910637
 20
-33588018.1662046164274216
 30
0.0
  0
VERTEX
  5
118C
  8
L_GEOMETRY
 10
-6016117.9759861901402473
 20
-33590638.3614868074655533
 30
0.0
  0
SEQEND
  5
118D
  8
L_GEOMETRY
  0
POLYLINE
  5
83D
  8
L_GEOMETRY
 66
     1
 10
0.0
 20
0.0
 30
0.0
  0
VERTEX
  5
118E
  8
L_GEOMETRY
 10
-6012779.1220460589975119
 20
-33588865.879301980137825
 30
0.0
  0
VERTEX
  5
118F
  8
L_GEOMETRY
 10
-6013000.9178085755556822
 20
-33591546.7224621772766113
 30
0.0
  0
SEQEND
  5
1190
  8
L_GEOMETRY
  0
POLYLINE
  5
841
  8
L_GEOMETRY
 66
     1
 10
0.0
 20
0.0
 30
0.0
  0
VERTEX
  5
1191
  8
L_GEOMETRY
 10
-6009805.8836150299757719
 20
-33589321.0162273794412613
 30
0.0
  0
VERTEX
  5
1192
  8
L_GEOMETRY
 10
-6010004.8553622076287866
 20
-33591903.6976778283715248
 30
0.0
  0
SEQEND
  5
1193
  8
L_GEOMETRY
  0
POLYLINE
  5
845
  8
L_GEOMETRY
 66
     1
 10
0.0
 20
0.0
 30
0.0
  0
VERTEX
  5
1194
  8
L_GEOMETRY
 10
-6016389.0012329174205661
 20
-33587602.2363488525152206
 30
0.0
  0
VERTEX
  5
1195
  8
L_GEOMETRY
 10
-6017073.4516439633443952
 20
-33590184.5889476463198662
 30
0.0
  0
SEQEND
  5
1196
  8
L_GEOMETRY
  0
POLYLINE
  5
849
  8
L_GEOMETRY
 66
     1
 10
0.0
 20
0.0
 30
0.0
  0
VERTEX
  5
1197
  8
L_GEOMETRY
 10
-6014720.6608657399192452
 20
-33588320.8146297782659531
 30
0.0
  0
VERTEX
  5
1198
  8
L_GEOMETRY
 10
-6015139.6208196086809039
 20
-33590910.8991624563932419
 30
0.0
  0
SEQEND
  5
1199
  8
L_GEOMETRY
  0
POLYLINE
  5
84D
  8
L_GEOMETRY
 66
     1
 10
0.0
 20
0.0
 30
0.0
  0
VERTEX
  5
119A
  8
L_GEOMETRY
 10
-6017192.826467570848763
 20
-33587239.1915909573435783
 30
0.0
  0
VERTEX
  5
119B
  8
L_GEOMETRY
 10
-6017937.9207644676789641
 20
-33589761.086311899125576
 30
0.0
  0
SEQEND
  5
119C
  8
L_GEOMETRY
  0
POLYLINE
  5
851
  8
L_GEOMETRY
 66
     1
 10
0.0
 20
0.0
 30
0.0
  0
VERTEX
  5
119D
  8
L_GEOMETRY
 10
-6011793.1813990129157901
 20
-33589138.4217425286769867
 30
0.0
  0
VERTEX
  5
119E
  8
L_GEOMETRY
 10
-6012022.5164625886827707
 20
-33591751.2909833192825317
 30
0.0
  0
SEQEND
  5
119F
  8
L_GEOMETRY
  0
POLYLINE
  5
855
  8
L_GEOMETRY
 66
     1
 10
0.0
 20
0.0
 30
0.0
  0
VERTEX
  5
11A0
  8
L_GEOMETRY
 10
-6017905.5838579284027219
 20
-33586815.7916850596666336
 30
0.0
  0
VERTEX
  5
11A1
  8
L_GEOMETRY
 10
-6018870.6446254421025515
 20
-33589314.8810803666710854
 30
0.0
  0
SEQEND
  5
11A2
  8
L_GEOMETRY
  0
POLYLINE
  5
859
  8
L_GEOMETRY
 66
     1
 10
0.0
 20
0.0
 30
0.0
  0
VERTEX
  5
11A3
  8
L_GEOMETRY
 10
-5945503.610304856672883
 20
-33578980.1427034065127373
 30
0.0
  0
VERTEX
  5
11A4
  8
L_GEOMETRY
 10
-5940474.0171022266149521
 20
-33578439.7556818798184395
 30
0.0
  0
SEQEND
  5
11A5
  8
L_GEOMETRY
  0
POLYLINE
  5
85D
  8
L_GEOMETRY
 66
     1
 10
0.0
 20
0.0
 30
0.0
  0
VERTEX
  5
11A6
  8
L_GEOMETRY
 10
-5945436.0223484737798572
 20
-33579999.7205647900700569
 30
0.0
  0
VERTEX
  5
11A7
  8
L_GEOMETRY
 10
-5940353.3144697528332472
 20
-33579436.7127320095896721
 30
0.0
  0
SEQEND
  5
11A8
  8
L_GEOMETRY
  0
POLYLINE
  5
861
  8
L_GEOMETRY
 66
     1
 10
0.0
 20
0.0
 30
0.0
  0
VERTEX
  5
11A9
  8
L_GEOMETRY
 10
-6012693.2865369599312544
 20
-33574116.6983334273099899
 30
0.0
  0
VERTEX
  5
11AA
  8
L_GEOMETRY
 10
-6014539.2665519593283534
 20
-33578087.8504277169704437
 30
0.0
  0
SEQEND
  5
11AB
  8
L_GEOMETRY
  0
POLYLINE
  5
865
  8
L_GEOMETRY
 66
     1
 10
0.0
 20
0.0
 30
0.0
  0
VERTEX
  5
11AC
  8
L_GEOMETRY
 10
-6007248.5435463106259704
 20
-33576620.1237908899784088
 30
0.0
  0
VERTEX
  5
11AD
  8
L_GEOMETRY
 10
-6007962.5821499694138765
 20
-33578092.2993436381220818
 30
0.0
  0
SEQEND
  5
11AE
  8
L_GEOMETRY
  0
POLYLINE
  5
869
  8
L_GEOMETRY
 66
     1
 10
0.0
 20
0.0
 30
0.0
  0
VERTEX
  5
11AF
  8
L_GEOMETRY
 10
-6011813.6680051125586033
 20
-33574570.419094480574131
 30
0.0
  0
VERTEX
  5
11B0
  8
L_GEOMETRY
 10
-6013462.1163963796570897
 20
-33578088.5794191211462021
 30
0.0
  0
SEQEND
  5
11B1
  8
L_GEOMETRY
  0
POLYLINE
  5
86D
  8
L_GEOMETRY
 66
     1
 10
0.0
 20
0.0
 30
0.0
  0
VERTEX
  5
11B2
  8
L_GEOMETRY
 10
-6008150.9600514685735106
 20
-33576226.8048185780644417
 30
0.0
  0
VERTEX
  5
11B3
  8
L_GEOMETRY
 10
-6009039.7323051206767559
 20
-33578091.5710192695260048
 30
0.0
  0
SEQEND
  5
11B4
  8
L_GEOMETRY
  0
POLYLINE
  5
871
  8
L_GEOMETRY
 66
     1
 10
0.0
 20
0.0
 30
0.0
  0
VERTEX
  5
11B5
  8
L_GEOMETRY
 10
-6006384.0751984920352697
 20
-33577043.6253949403762817
 30
0.0
  0
VERTEX
  5
11B6
  8
L_GEOMETRY
 10
-6006855.0897362977266312
 20
-33578093.0480475574731827
 30
0.0
  0
SEQEND
  5
11B7
  8
L_GEOMETRY
  0
POLYLINE
  5
875
  8
L_GEOMETRY
 66
     1
 10
0.0
 20
0.0
 30
0.0
  0
VERTEX
  5
11B8
  8
L_GEOMETRY
 10
-6010903.6662677526473999
 20
-33574963.7435702681541443
 30
0.0
  0
VERTEX
  5
11B9
  8
L_GEOMETRY
 10
-6012331.8672883100807667
 20
-33578089.344205766916275
 30
0.0
  0
SEQEND
  5
11BA
  8
L_GEOMETRY
  0
POLYLINE
  5
879
  8
L_GEOMETRY
 66
     1
 10
0.0
 20
0.0
 30
0.0
  0
VERTEX
  5
11BB
  8
L_GEOMETRY
 10
-6014513.2742629973217845
 20
-33573307.3926472067832947
 30
0.0
  0
VERTEX
  5
11BC
  8
L_GEOMETRY
 10
-6016382.0934311663731933
 20
-33577399.3624076917767525
 30
0.0
  0
SEQEND
  5
11BD
  8
L_GEOMETRY
  0
POLYLINE
  5
87D
  8
L_GEOMETRY
 66
     1
 10
0.0
 20
0.0
 30
0.0
  0
VERTEX
  5
11BE
  8
L_GEOMETRY
 10
-6018145.6120237223803997
 20
-33571613.2643884792923927
 30
0.0
  0
VERTEX
  5
11BF
  8
L_GEOMETRY
 10
-6019984.0902590472251177
 20
-33575705.2539514005184174
 30
0.0
  0
SEQEND
  5
11C0
  8
L_GEOMETRY
  0
POLYLINE
  5
881
  8
L_GEOMETRY
 66
     1
 10
0.0
 20
0.0
 30
0.0
  0
VERTEX
  5
11C1
  8
L_GEOMETRY
 10
-6019048.0121935606002808
 20
-33571197.2880350202322006
 30
0.0
  0
VERTEX
  5
11C2
  8
L_GEOMETRY
 10
-6020916.8330060383304954
 20
-33575289.2568551078438759
 30
0.0
  0
SEQEND
  5
11C3
  8
L_GEOMETRY
  0
POLYLINE
  5
885
  8
L_GEOMETRY
 66
     1
 10
0.0
 20
0.0
 30
0.0
  0
VERTEX
  5
11C4
  8
L_GEOMETRY
 10
-6019935.2565106125548482
 20
-33570803.9781364873051643
 30
0.0
  0
VERTEX
  5
11C5
  8
L_GEOMETRY
 10
-6021826.8343356121331453
 20
-33574895.931353971362114
 30
0.0
  0
SEQEND
  5
11C6
  8
L_GEOMETRY
  0
POLYLINE
  5
889
  8
L_GEOMETRY
 66
     1
 10
0.0
 20
0.0
 30
0.0
  0
VERTEX
  5
11C7
  8
L_GEOMETRY
 10
-6020845.2369559248909354
 20
-33570380.4443712681531906
 30
0.0
  0
VERTEX
  5
11C8
  8
L_GEOMETRY
 10
-6022736.8151107067242265
 20
-33574472.397395446896553
 30
0.0
  0
SEQEND
  5
11C9
  8
L_GEOMETRY
  0
POLYLINE
  5
88D
  8
L_GEOMETRY
 66
     1
 10
0.0
 20
0.0
 30
0.0
  0
VERTEX
  5
11CA
  8
L_GEOMETRY
 10
-6021747.6522276308387518
 20
-33569987.124013178050518
 30
0.0
  0
VERTEX
  5
11CB
  8
L_GEOMETRY
 10
-6023646.8162763481959701
 20
-33574079.0717080682516098
 30
0.0
  0
SEQEND
  5
11CC
  8
L_GEOMETRY
  0
POLYLINE
  5
891
  8
L_GEOMETRY
 66
     1
 10
0.0
 20
0.0
 30
0.0
  0
VERTEX
  5
11CD
  8
L_GEOMETRY
 10
-6013603.2881086301058531
 20
-33573723.3736728131771088
 30
0.0
  0
VERTEX
  5
11CE
  8
L_GEOMETRY
 10
-6015517.6203239820897579
 20
-33577815.312810130417347
 30
0.0
  0
SEQEND
  5
11CF
  8
L_GEOMETRY
  0
POLYLINE
  5
895
  8
L_GEOMETRY
 66
     1
 10
0.0
 20
0.0
 30
0.0
  0
VERTEX
  5
11D0
  8
L_GEOMETRY
 10
-6034253.2511999616399407
 20
-33576752.8689700812101364
 30
0.0
  0
VERTEX
  5
11D1
  8
L_GEOMETRY
 10
-6035156.8308264017105103
 20
-33578073.8717598468065262
 30
0.0
  0
SEQEND
  5
11D2
  8
L_GEOMETRY
  0
POLYLINE
  5
899
  8
L_GEOMETRY
 66
     1
 10
0.0
 20
0.0
 30
0.0
  0
VERTEX
  5
11D3
  8
L_GEOMETRY
 10
-6033737.6174961859360337
 20
-33577025.0944779887795448
 30
0.0
  0
VERTEX
  5
11D4
  8
L_GEOMETRY
 10
-6034375.517684256657958
 20
-33578074.4023621082305908
 30
0.0
  0
SEQEND
  5
11D5
  8
L_GEOMETRY
  0
POLYLINE
  5
89D
  8
L_GEOMETRY
 66
     1
 10
0.0
 20
0.0
 30
0.0
  0
VERTEX
  5
11D6
  8
L_GEOMETRY
 10
-6037020.0578345451503992
 20
-33573918.9545334279537201
 30
0.0
  0
VERTEX
  5
11D7
  8
L_GEOMETRY
 10
-6038985.7240542788058519
 20
-33575397.8292981311678886
 30
0.0
  0
SEQEND
  5
11D8
  8
L_GEOMETRY
  0
POLYLINE
  5
8A1
  8
L_GEOMETRY
 66
     1
 10
0.0
 20
0.0
 30
0.0
  0
VERTEX
  5
11D9
  8
L_GEOMETRY
 10
-6038270.5720701878890395
 20
-33572294.404702290892601
 30
0.0
  0
VERTEX
  5
11DA
  8
L_GEOMETRY
 10
-6040167.9629622334614396
 20
-33573765.7735090032219887
 30
0.0
  0
SEQEND
  5
11DB
  8
L_GEOMETRY
  0
POLYLINE
  5
8A5
  8
L_GEOMETRY
 66
     1
 10
0.0
 20
0.0
 30
0.0
  0
VERTEX
  5
11DC
  8
L_GEOMETRY
 10
-6036360.6065197223797441
 20
-33574644.4035283327102661
 30
0.0
  0
VERTEX
  5
11DD
  8
L_GEOMETRY
 10
-6038326.2881871443241835
 20
-33576145.934708297252655
 30
0.0
  0
SEQEND
  5
11DE
  8
L_GEOMETRY
  0
POLYLINE
  5
8A9
  8
L_GEOMETRY
 66
     1
 10
0.0
 20
0.0
 30
0.0
  0
VERTEX
  5
11DF
  8
L_GEOMETRY
 10
-6035155.3382686255499721
 20
-33575876.2134740576148033
 30
0.0
  0
VERTEX
  5
11E0
  8
L_GEOMETRY
 10
-6036923.8825620887801051
 20
-33577506.2644417434930801
 30
0.0
  0
SEQEND
  5
11E1
  8
L_GEOMETRY
  0
POLYLINE
  5
8AD
  8
L_GEOMETRY
 66
     1
 10
0.0
 20
0.0
 30
0.0
  0
VERTEX
  5
11E2
  8
L_GEOMETRY
 10
-6035648.0561629608273506
 20
-33575369.8885393887758255
 30
0.0
  0
VERTEX
  5
11E3
  8
L_GEOMETRY
 10
-6037712.3912447607144713
 20
-33576931.769597589969635
 30
0.0
  0
SEQEND
  5
11E4
  8
L_GEOMETRY
  0
POLYLINE
  5
8B1
  8
L_GEOMETRY
 66
     1
 10
0.0
 20
0.0
 30
0.0
  0
VERTEX
  5
11E5
  8
L_GEOMETRY
 10
-6037664.3019999088719487
 20
-33573140.6511622592806816
 30
0.0
  0
VERTEX
  5
11E6
  8
L_GEOMETRY
 10
-6039622.3569338899105787
 20
-33574581.7704897299408913
 30
0.0
  0
SEQEND
  5
11E7
  8
L_GEOMETRY
  0
POLYLINE
  5
8B5
  8
L_GEOMETRY
 66
     1
 10
0.0
 20
0.0
 30
0.0
  0
VERTEX
  5
11E8
  8
L_GEOMETRY
 10
-6034768.7617848124355078
 20
-33576299.393266536295414
 30
0.0
  0
VERTEX
  5
11E9
  8
L_GEOMETRY
 10
-6036385.6512338314205408
 20
-33578012.620362862944603
 30
0.0
  0
SEQEND
  5
11EA
  8
L_GEOMETRY
  0
POLYLINE
  5
8B9
  8
L_GEOMETRY
 66
     1
 10
0.0
 20
0.0
 30
0.0
  0
VERTEX
  5
11EB
  8
L_GEOMETRY
 10
-5946287.8951969612389803
 20
-33572084.5563951507210732
 30
0.0
  0
VERTEX
  5
11EC
  8
L_GEOMETRY
 10
-5941250.7051430568099022
 20
-33571521.5186189785599709
 30
0.0
  0
SEQEND
  5
11ED
  8
L_GEOMETRY
  0
POLYLINE
  5
8BD
  8
L_GEOMETRY
 66
     1
 10
0.0
 20
0.0
 30
0.0
  0
VERTEX
  5
11EE
  8
L_GEOMETRY
 10
-5945722.2829533899202943
 20
-33577024.0041373893618584
 30
0.0
  0
VERTEX
  5
11EF
  8
L_GEOMETRY
 10
-5940692.6706489389762282
 20
-33576453.4088793992996216
 30
0.0
  0
SEQEND
  5
11F0
  8
L_GEOMETRY
  0
POLYLINE
  5
8C1
  8
L_GEOMETRY
 66
     1
 10
0.0
 20
0.0
 30
0.0
  0
VERTEX
  5
11F1
  8
L_GEOMETRY
 10
-5946167.1933024981990457
 20
-33573081.513533778488636
 30
0.0
  0
VERTEX
  5
11F2
  8
L_GEOMETRY
 10
-5941129.9976422563195229
 20
-33572510.9235986694693565
 30
0.0
  0
SEQEND
  5
11F3
  8
L_GEOMETRY
  0
POLYLINE
  5
8C5
  8
L_GEOMETRY
 66
     1
 10
0.0
 20
0.0
 30
0.0
  0
VERTEX
  5
11F4
  8
L_GEOMETRY
 10
-5946529.3039575079455972
 20
-33570098.1941989064216614
 30
0.0
  0
VERTEX
  5
11F5
  8
L_GEOMETRY
 10
-5941476.9438968347385526
 20
-33569535.1667024791240692
 30
0.0
  0
SEQEND
  5
11F6
  8
L_GEOMETRY
  0
POLYLINE
  5
8C9
  8
L_GEOMETRY
 66
     1
 10
0.0
 20
0.0
 30
0.0
  0
VERTEX
  5
11F7
  8
L_GEOMETRY
 10
-5945850.5907256649807096
 20
-33576057.2502961307764053
 30
0.0
  0
VERTEX
  5
11F8
  8
L_GEOMETRY
 10
-5940767.8850745428353548
 20
-33575494.2427005618810654
 30
0.0
  0
SEQEND
  5
11F9
  8
L_GEOMETRY
  0
POLYLINE
  5
8CD
  8
L_GEOMETRY
 66
     1
 10
0.0
 20
0.0
 30
0.0
  0
VERTEX
  5
11FA
  8
L_GEOMETRY
 10
-5945624.3325675101950765
 20
-33578013.3939443081617355
 30
0.0
  0
VERTEX
  5
11FB
  8
L_GEOMETRY
 10
-5940571.9680662518367171
 20
-33577450.3659337684512138
 30
0.0
  0
SEQEND
  5
11FC
  8
L_GEOMETRY
  0
POLYLINE
  5
8D1
  8
L_GEOMETRY
 66
     1
 10
0.0
 20
0.0
 30
0.0
  0
VERTEX
  5
11FD
  8
L_GEOMETRY
 10
-5946627.2541530579328537
 20
-33569108.804370790719986
 30
0.0
  0
VERTEX
  5
11FE
  8
L_GEOMETRY
 10
-5941597.6462681526318192
 20
-33568538.2096240296959877
 30
0.0
  0
SEQEND
  5
11FF
  8
L_GEOMETRY
  0
POLYLINE
  5
8D5
  8
L_GEOMETRY
 66
     1
 10
0.0
 20
0.0
 30
0.0
  0
VERTEX
  5
1200
  8
L_GEOMETRY
 10
-5946408.6021176958456635
 20
-33571095.1513432264328003
 30
0.0
  0
VERTEX
  5
1201
  8
L_GEOMETRY
 10
-5941378.9931231345981359
 20
-33570524.5564732700586319
 30
0.0
  0
SEQEND
  5
1202
  8
L_GEOMETRY
  0
POLYLINE
  5
8D9
  8
L_GEOMETRY
 66
     1
 10
0.0
 20
0.0
 30
0.0
  0
VERTEX
  5
1203
  8
L_GEOMETRY
 10
-5946876.248308077454567
 20
-33567122.4370789602398872
 30
0.0
  0
VERTEX
  5
1204
  8
L_GEOMETRY
 10
-5941793.5628490205854177
 20
-33566582.0863398388028145
 30
0.0
  0
SEQEND
  5
1205
  8
L_GEOMETRY
  0
POLYLINE
  5
8DD
  8
L_GEOMETRY
 66
     1
 10
0.0
 20
0.0
 30
0.0
  0
VERTEX
  5
1206
  8
L_GEOMETRY
 10
-5946747.9761542500928044
 20
-33568142.0555811896920204
 30
0.0
  0
VERTEX
  5
1207
  8
L_GEOMETRY
 10
-5941718.3536617644131184
 20
-33567548.8046308979392052
 30
0.0
  0
SEQEND
  5
1208
  8
L_GEOMETRY
  0
POLYLINE
  5
8E1
  8
L_GEOMETRY
 66
     1
 10
0.0
 20
0.0
 30
0.0
  0
VERTEX
  5
1209
  8
L_GEOMETRY
 10
-5945971.2775371223688126
 20
-33575037.6368951499462128
 30
0.0
  0
VERTEX
  5
120A
  8
L_GEOMETRY
 10
-5940934.1009771460667253
 20
-33574497.255210667848587
 30
0.0
  0
SEQEND
  5
120B
  8
L_GEOMETRY
  0
POLYLINE
  5
8E5
  8
L_GEOMETRY
 66
     1
 10
0.0
 20
0.0
 30
0.0
  0
VERTEX
  5
120C
  8
L_GEOMETRY
 10
-6017235.6313238916918635
 20
-33572036.7978775277733803
 30
0.0
  0
VERTEX
  5
120D
  8
L_GEOMETRY
 10
-6019081.674328276887536
 20
-33576098.5741268023848534
 30
0.0
  0
SEQEND
  5
120E
  8
L_GEOMETRY
  0
POLYLINE
  5
8E9
  8
L_GEOMETRY
 66
     1
 10
0.0
 20
0.0
 30
0.0
  0
VERTEX
  5
120F
  8
L_GEOMETRY
 10
-5946046.4863273240625858
 20
-33574070.9185800179839134
 30
0.0
  0
VERTEX
  5
1210
  8
L_GEOMETRY
 10
-5941062.3940856792032719
 20
-33573507.8451644405722618
 30
0.0
  0
SEQEND
  5
1211
  8
L_GEOMETRY
  0
POLYLINE
  5
8ED
  8
L_GEOMETRY
 66
     1
 10
0.0
 20
0.0
 30
0.0
  0
VERTEX
  5
1212
  8
L_GEOMETRY
 10
-6005451.3366936622187495
 20
-33577467.1730540990829468
 30
0.0
  0
VERTEX
  5
1213
  8
L_GEOMETRY
 10
-6005777.9395813122391701
 20
-33578093.7761070802807808
 30
0.0
  0
SEQEND
  5
1214
  8
L_GEOMETRY
  0
TEXT
  5
8F1
  8
TXT_SITE
 10
-6045671.3182076197117567
 20
-33587027.4005673974752426
 30
0.0
 40
11847.8529253082706418
  1
区立淡路公園
 50
336.3684082045348873
  7
YOKO
  0
TEXT
  5
8F4
  8
TXT_BUILDING_NAME
 10
-6052393.3063147524371743
 20
-33604282.2484428510069847
 30
0.0
 40
2188.9558345509899482
  1
淡路町
 50
336.862721414484497
  7
YOKO
  0
TEXT
  5
8F5
  8
TXT_BUILDING_NAME
 10
-6053440.3502772925421596
 20
-33606702.7917938977479935
 30
0.0
 40
2188.9558345509899482
  1
２２３ビル
 50
336.862721414484497
  7
YOKO
  0
TEXT
  5
8F6
  8
TXT_BUILDING_NAME
 10
-6044041.8384942961856723
 20
-33503796.4988761581480503
 30
0.0
 40
1929.1525368482509748
  1
駿河台
 50
336.1093015230899255
  7
YOKO
  0
TEXT
  5
8F7
  8
TXT_BUILDING_NAME
 10
-6044991.4700263720005751
 20
-33505917.9319385290145874
 30
0.0
 40
1929.1525368482509748
  1
スピックビル
 50
336.1093015230899255
  7
YOKO
  0
TEXT
  5
8F8
  8
TXT_BUILDING_NAME
 10
-5910511.3331073997542262
 20
-33532159.2515749782323837
 30
0.0
 40
2850.8582370072890626
  1
ＷＡＴＥＲＲＡＳＡＮＮＥＸ
 50
336.4155725131951158
  7
TATE
  0
TEXT
  5
8F9
  8
TXT_BUILDING_NAME
 10
-6016613.2223140280693769
 20
-33580444.7061835378408432
 30
0.0
 40
1798.7153371359149787
  1
ＷＣ
 50
334.97407413509751
  7
YOKO
  0
TEXT
  5
8FA
  8
TXT_BUILDING_NAME
 10
-5984533.3219291679561138
 20
-33526010.2763460613787174
 30
0.0
 40
3207.2554572168110099
  1
ＷＡＴＥＲＲＡＳＴＯＷＥＲ
 50
336.5104309013883039
  7
TATE
  0
TEXT
  5
8FB
  8
TXT_BUILDING_NAME
 10
-5914077.2975447718054056
 20
-33482534.3083324916660786
 30
0.0
 40
2443.1566743917928761
  1
区営淡路町
 50
337.1019876104855939
  7
TATE
  0
TEXT
  5
8FC
  8
TXT_BUILDING_NAME
 10
-5916788.9040222922340035
 20
-33481388.9921841882169247
 30
0.0
 40
2443.1566743917928761
  1
住宅区営淡路町
 50
337.1019876104855939
  7
TATE
  0
TEXT
  5
8FD
  8
TXT_BUILDING_NAME
 10
-5919500.5104998089373112
 20
-33480243.6760358698666096
 30
0.0
 40
2443.1566743917928761
  1
高齢者住宅
 50
337.1019876104855939
  7
TATE
  0
TEXT
  5
8FE
  8
TXT_BUILDING_NAME
 10
-5923556.6925544897094369
 20
-33452073.6644264683127403
 30
0.0
 40
5975.1708792044655638
  1
お茶の水
 50
336.8142803743032232
  7
TATE
  0
TEXT
  5
8FF
  8
TXT_BUILDING_NAME
 10
-5930174.2564194379374385
 20
-33449239.3276883698999882
 30
0.0
 40
5975.1708792044655638
  1
ホテルジュラク
 50
336.8142803743032232
  7
TATE
  0
TEXT
  5
900
  8
TXT_BUILDING_NAME
 10
-6021900.3252547001466155
 20
-33486897.1209728084504604
 30
0.0
 40
2772.5066344136330372
  1
㈱藤商事
 50
336.0999707688006879
  7
TATE
  0
TEXT
  5
901
  8
TXT_BUILDING_NAME
 10
-6024954.2707327613607049
 20
-33485543.7972841002047062
 30
0.0
 40
2772.5066344136330372
  1
お茶の水ビル
 50
336.0999707688006879
  7
TATE
  0
TEXT
  5
902
  8
TXT_BUILDING_NUMBER
 10
-6053609.4709727456793189
 20
-33530444.5090506300330162
 30
0.0
 40
1538.5076156951361099
  1
２－９
 50
336.0
 41
0.5384310000000001
  7
YOKO
  0
TEXT
  5
903
  8
TXT_BUILDING_NUMBER
 10
-6049514.678718232549727
 20
-33504471.4012541212141514
 30
0.0
 40
1538.5031118493939175
  1
４－５
 50
337.0
 41
0.5384310000000001
  7
YOKO
  0
TEXT
  5
904
  8
TXT_BUILDING_NUMBER
 10
-6037469.926069195382297
 20
-33503130.2228395491838455
 30
0.0
 40
1538.5028281416200571
  1
４
 50
333.0
 41
0.5384310000000001
  7
YOKO
  0
TEXT
  5
905
  8
TXT_BUILDING_NUMBER
 10
-5956903.3777001658454537
 20
-33494388.7432151101529598
 30
0.0
 40
1538.5012826597098865
  1
９
 50
335.0
 41
0.5384310000000001
  7
YOKO
  0
TEXT
  5
906
  8
TXT_BUILDING_NUMBER
 10
-6021427.8676947774365544
 20
-33569558.8538781180977821
 30
0.0
 40
1538.5574111810060458
  1
１０１
 50
336.0
 41
0.5384310000000001
  7
YOKO
  0
TEXT
  5
907
  8
TXT_BUILDING_NUMBER
 10
-6021427.8676947774365544
 20
-33569558.8538781180977821
 30
0.0
 40
1538.5574111810060458
  1
１０１
 50
336.0
 41
0.5384310000000001
  7
YOKO
  0
TEXT
  5
908
  8
TXT_BUILDING_NUMBER
 10
-6057768.6568249193951488
 20
-33606809.7567058205604553
 30
0.0
 40
1538.5638540959580496
  1
２３
 50
333.0
 41
0.5384310000000001
  7
YOKO
  0
TEXT
  5
909
  8
TXT_BUILDING_NUMBER
 10
-5939656.0224073408171535
 20
-33570301.1146931126713753
 30
0.0
 40
1538.5575104885019755
  1
１０５
 50
336.0
 41
0.5384310000000001
  7
YOKO
  0
TEXT
  5
90A
  8
TXT_BUILDING_NUMBER
 10
-5939656.0224073408171535
 20
-33570301.1146931126713753
 30
0.0
 40
1538.5575104885019755
  1
１０５
 50
336.0
 41
0.5384310000000001
  7
YOKO
  0
TEXT
  5
90B
  8
TXT_BUILDING_NUMBER
 10
-5939656.0224073408171535
 20
-33570301.1146931126713753
 30
0.0
 40
1538.5575104885019755
  1
１０５
 50
336.0
 41
0.5384310000000001
  7
YOKO
  0
TEXT
  5
90C
  8
TXT_BUILDING_NUMBER
 10
-6054431.2033795965835452
 20
-33608317.84419085085392
 30
0.0
 40
1538.5640978502331109
  1
２３
 50
338.0
 41
0.5384310000000001
  7
YOKO
  0
TEXT
  5
90D
  8
TXT_BUILDING_FLOOR
 10
-6043395.5517021277919412
 20
-33534863.8271822705864906
 30
0.0
 40
1538.5083471060079319
  1
２Ｆ
 50
336.0
 41
0.5384310000000001
  7
YOKO
  0
TEXT
  5
90E
  8
TXT_BUILDING_FLOOR
 10
-6030486.264270830899477
 20
-33512892.5669186785817146
 30
0.0
 40
1538.5045365371149728
  1
５Ｆ
 50
337.0
 41
0.5384310000000001
  7
YOKO
  0
TEXT
  5
90F
  8
TXT_BUILDING_FLOOR
 10
-6037354.9375278288498521
 20
-33495670.1526458486914635
 30
0.0
 40
1538.5015401445371026
  1
７Ｆ
 50
342.0
 41
0.5384310000000001
  7
YOKO
  0
TEXT
  5
910
  8
TXT_BUILDING_FLOOR
 10
-6027677.5615724716335535
 20
-33507608.5946512296795845
 30
0.0
 40
1538.5036325553060124
  1
６Ｆ
 50
333.0
 41
0.5384310000000001
  7
YOKO
  0
TEXT
  5
911
  8
TXT_BUILDING_FLOOR
 10
-5939908.5773074850440025
 20
-33500764.1574452891945839
 30
0.0
 40
1538.502441040568101
  1
１１Ｆ
 50
335.0
 41
0.5384310000000001
  7
YOKO
  0
TEXT
  5
912
  8
TXT_BUILDING_FLOOR
 10
-5941533.512466499581933
 20
-33563614.5587694719433784
 30
0.0
 40
1538.5132898649239905
  1
２Ｆ
 50
336.0
 41
0.5384310000000001
  7
YOKO
  0
TEXT
  5
913
  8
TXT_BUILDING_FLOOR
 10
-5996077.2189038917422295
 20
-33520806.6645684391260147
 30
0.0
 40
1538.505887357958045
  1
２Ｆ
 50
339.0
 41
0.5384310000000001
  7
YOKO
  0
TEXT
  5
914
  8
TXT_BUILDING_FLOOR
 10
-5999522.674317792057991
 20
-33516196.866520319133997
 30
0.0
 40
1538.505074878700043
  1
２Ｆ
 50
344.0
 41
0.5384310000000001
  7
YOKO
  0
TEXT
  5
915
  8
TXT_BUILDING_FLOOR
 10
-5978453.8322187513113022
 20
-33518847.9180756211280823
 30
0.0
 40
1538.5054820050979743
  1
２Ｆ
 41
0.5384310000000001
  7
YOKO
  0
TEXT
  5
916
  8
TXT_BUILDING_FLOOR
 10
-6052348.1510940613225102
 20
-33502403.2434117384254932
 30
0.0
 40
1538.5027268701030607
  1
８Ｆ
 50
337.0
 41
0.5384310000000001
  7
YOKO
  0
TEXT
  5
917
  8
TXT_BUILDING_FLOOR
 10
-5978529.9986397009342909
 20
-33589842.527311310172081
 30
0.0
 40
1538.5609071651961131
  1
４１Ｆ
 50
336.0
 41
0.5384310000000001
  7
YOKO
  0
TEXT
  5
918
  8
TXT_BUILDING_FLOOR
 10
-5978529.9986397009342909
 20
-33589842.527311310172081
 30
0.0
 40
1538.5609071651961131
  1
４１Ｆ
 50
336.0
 41
0.5384310000000001
  7
YOKO
  0
TEXT
  5
919
  8
TXT_BUILDING_FLOOR
 10
-6055736.2954389825463295
 20
-33607656.9761811792850494
 30
0.0
 40
1538.5640000749579031
  1
３Ｆ
 50
333.0
 41
0.5384310000000001
  7
YOKO
  0
TEXT
  5
91A
  8
TXT_BUILDING_FLOOR
 10
-5935117.4788748668506742
 20
-33578097.9072677195072174
 30
0.0
 40
1538.5588600289590886
  1
１５Ｆ
 50
336.0
 41
0.5384310000000001
  7
YOKO
  0
TEXT
  5
91B
  8
TXT_BUILDING_FLOOR
 10
-5935117.4788748668506742
 20
-33578097.9072677195072174
 30
0.0
 40
1538.5588600289590886
  1
１５Ｆ
 50
336.0
 41
0.5384310000000001
  7
YOKO
  0
TEXT
  5
91C
  8
TXT_BUILDING_FLOOR
 10
-5935117.4788748668506742
 20
-33578097.9072677195072174
 30
0.0
 40
1538.5588600289590886
  1
１５Ｆ
 50
336.0
 41
0.5384310000000001
  7
YOKO
  0
TEXT
  5
91D
  8
TXT_BUILDING_FLOOR
 10
-6043480.8060851767659187
 20
-33613022.6992096304893494
 30
0.0
 40
1538.564908639036048
  1
７Ｆ
 50
338.0
 41
0.5384310000000001
  7
YOKO
  0
TEXT
  5
91E
  8
TXT_BUILDING_FLOOR
 10
-6008981.3055020002648234
 20
-33583861.2038533464074135
 30
0.0
 40
366.5438007164647729
  1
１Ｆ
 50
335.0
 41
0.5384310000000001
  7
YOKO
  0
TEXT
  5
91F
  8
TXT_BUILDING_FLOOR
 10
-6008981.3055020002648234
 20
-33583861.2038533464074135
 30
0.0
 40
366.5438007164647729
  1
１Ｆ
 50
335.0
 41
0.5384310000000001
  7
YOKO
  0
TEXT
  5
920
  8
TXT_BUILDING_FLOOR
 10
-5939551.8823599014431238
 20
-33606602.4410087168216705
 30
0.0
 40
1538.5637082845439636
  1
２Ｆ
 50
356.0
 41
0.5384310000000001
  7
YOKO
  0
TEXT
  5
921
  8
TXT_BUILDING_FLOOR
 10
-5941533.5423756996169686
 20
-33563614.5532647669315338
 30
0.0
 40
1538.5563243772489841
  1
２Ｆ
 50
336.0
 41
0.5384310000000001
  7
YOKO
  0
ENDSEC
  0
EOF
